ISO-10303-21;
HEADER;
FILE_DESCRIPTION((''),'2;1');
FILE_NAME('A114017','2020-02-14T',('Administrator'),(''),
'PRO/ENGINEER BY PARAMETRIC TECHNOLOGY CORPORATION, 2014000',
'PRO/ENGINEER BY PARAMETRIC TECHNOLOGY CORPORATION, 2014000','');
FILE_SCHEMA(('CONFIG_CONTROL_DESIGN'));
ENDSEC;
DATA;
#1=CARTESIAN_POINT('',(0.E0,0.E0,0.E0));
#2=DIRECTION('',(-1.E0,0.E0,0.E0));
#3=DIRECTION('',(0.E0,-1.E0,0.E0));
#4=AXIS2_PLACEMENT_3D('',#1,#2,#3);
#6=CARTESIAN_POINT('',(0.E0,0.E0,0.E0));
#7=DIRECTION('',(-1.E0,0.E0,0.E0));
#8=DIRECTION('',(0.E0,1.E0,0.E0));
#9=AXIS2_PLACEMENT_3D('',#6,#7,#8);
#11=DIRECTION('',(7.071067811865E-1,-7.071067811865E-1,-5.969021514031E-12));
#12=VECTOR('',#11,7.071067811776E-1);
#13=CARTESIAN_POINT('',(-5.654291849548E-11,-1.034999999943E0,
-3.757698496836E-11));
#14=LINE('',#13,#12);
#15=DIRECTION('',(7.071067811865E-1,7.071067811865E-1,5.968087270751E-12));
#16=VECTOR('',#15,7.071067811776E-1);
#17=CARTESIAN_POINT('',(-5.654291849548E-11,1.034999999943E0,
3.757717253421E-11));
#18=LINE('',#17,#16);
#19=CARTESIAN_POINT('',(5.E-1,0.E0,0.E0));
#20=DIRECTION('',(-1.E0,0.E0,0.E0));
#21=DIRECTION('',(0.E0,1.E0,0.E0));
#22=AXIS2_PLACEMENT_3D('',#19,#20,#21);
#24=DIRECTION('',(-1.E0,4.466865639980E-12,-2.968579207070E-12));
#25=VECTOR('',#24,1.408000000006E1);
#26=CARTESIAN_POINT('',(1.458E1,-1.535E0,0.E0));
#27=LINE('',#26,#25);
#28=CARTESIAN_POINT('',(1.458E1,0.E0,0.E0));
#29=DIRECTION('',(-1.E0,0.E0,0.E0));
#30=DIRECTION('',(0.E0,1.E0,0.E0));
#31=AXIS2_PLACEMENT_3D('',#28,#29,#30);
#33=DIRECTION('',(-1.E0,-4.466865639980E-12,2.968545610202E-12));
#34=VECTOR('',#33,1.408000000006E1);
#35=CARTESIAN_POINT('',(1.458E1,1.535E0,0.E0));
#36=LINE('',#35,#34);
#37=CARTESIAN_POINT('',(5.E-1,0.E0,0.E0));
#38=DIRECTION('',(-1.E0,0.E0,0.E0));
#39=DIRECTION('',(0.E0,-1.E0,0.E0));
#40=AXIS2_PLACEMENT_3D('',#37,#38,#39);
#42=CARTESIAN_POINT('',(1.458E1,0.E0,0.E0));
#43=DIRECTION('',(1.E0,0.E0,0.E0));
#44=DIRECTION('',(0.E0,1.E0,0.E0));
#45=AXIS2_PLACEMENT_3D('',#42,#43,#44);
#47=CARTESIAN_POINT('',(1.458E1,0.E0,0.E0));
#48=DIRECTION('',(1.E0,0.E0,0.E0));
#49=DIRECTION('',(0.E0,1.E0,0.E0));
#50=AXIS2_PLACEMENT_3D('',#47,#48,#49);
#52=CARTESIAN_POINT('',(1.458E1,0.E0,0.E0));
#53=DIRECTION('',(-1.E0,0.E0,0.E0));
#54=DIRECTION('',(0.E0,1.E0,0.E0));
#55=AXIS2_PLACEMENT_3D('',#52,#53,#54);
#57=CARTESIAN_POINT('',(1.698E1,0.E0,0.E0));
#58=DIRECTION('',(-1.E0,0.E0,0.E0));
#59=DIRECTION('',(0.E0,-1.E0,0.E0));
#60=AXIS2_PLACEMENT_3D('',#57,#58,#59);
#62=DIRECTION('',(7.071067811865E-1,7.071067811865E-1,2.717583233892E-12));
#63=VECTOR('',#62,7.071067811876E-1);
#64=CARTESIAN_POINT('',(1.698000000003E1,-2.184999999973E0,6.808086897943E-11));
#65=LINE('',#64,#63);
#66=DIRECTION('',(7.071067811865E-1,-7.071067811865E-1,-2.717237997605E-12));
#67=VECTOR('',#66,7.071067811876E-1);
#68=CARTESIAN_POINT('',(1.698000000003E1,2.184999999973E0,-6.808105716763E-11));
#69=LINE('',#68,#67);
#70=CARTESIAN_POINT('',(1.698E1,0.E0,0.E0));
#71=DIRECTION('',(-1.E0,0.E0,0.E0));
#72=DIRECTION('',(0.E0,1.E0,0.E0));
#73=AXIS2_PLACEMENT_3D('',#70,#71,#72);
#75=DIRECTION('',(-1.E0,1.132723544578E-11,2.836718148211E-11));
#76=VECTOR('',#75,2.400000000027E0);
#77=CARTESIAN_POINT('',(1.698000000003E1,2.184999999973E0,-6.808105716763E-11));
#78=LINE('',#77,#76);
#79=DIRECTION('',(-1.E0,-1.132742048295E-11,-2.836710307037E-11));
#80=VECTOR('',#79,2.400000000027E0);
#81=CARTESIAN_POINT('',(1.698000000003E1,-2.184999999973E0,6.808086897943E-11));
#82=LINE('',#81,#80);
#83=CARTESIAN_POINT('',(1.748E1,0.E0,0.E0));
#84=DIRECTION('',(-1.E0,0.E0,0.E0));
#85=DIRECTION('',(0.E0,-1.E0,0.E0));
#86=AXIS2_PLACEMENT_3D('',#83,#84,#85);
#88=CARTESIAN_POINT('',(1.748E1,0.E0,0.E0));
#89=DIRECTION('',(-1.E0,0.E0,0.E0));
#90=DIRECTION('',(0.E0,1.E0,0.E0));
#91=AXIS2_PLACEMENT_3D('',#88,#89,#90);
#93=CARTESIAN_POINT('',(1.458E1,2.185E0,0.E0));
#94=CARTESIAN_POINT('',(1.458E1,-2.185E0,0.E0));
#95=VERTEX_POINT('',#93);
#96=VERTEX_POINT('',#94);
#97=CARTESIAN_POINT('',(1.458E1,1.535E0,0.E0));
#98=CARTESIAN_POINT('',(1.458E1,-1.535E0,0.E0));
#99=VERTEX_POINT('',#97);
#100=VERTEX_POINT('',#98);
#101=CARTESIAN_POINT('',(1.698E1,-2.185E0,0.E0));
#102=CARTESIAN_POINT('',(1.698E1,2.185E0,0.E0));
#103=VERTEX_POINT('',#101);
#104=VERTEX_POINT('',#102);
#105=CARTESIAN_POINT('',(1.748E1,-1.685E0,0.E0));
#106=CARTESIAN_POINT('',(1.748E1,1.685E0,0.E0));
#107=VERTEX_POINT('',#105);
#108=VERTEX_POINT('',#106);
#109=CARTESIAN_POINT('',(0.E0,-1.035E0,0.E0));
#110=CARTESIAN_POINT('',(0.E0,1.035E0,0.E0));
#111=VERTEX_POINT('',#109);
#112=VERTEX_POINT('',#110);
#113=CARTESIAN_POINT('',(5.E-1,-1.535E0,0.E0));
#114=CARTESIAN_POINT('',(5.E-1,1.535E0,0.E0));
#115=VERTEX_POINT('',#113);
#116=VERTEX_POINT('',#114);
#117=CARTESIAN_POINT('',(0.E0,0.E0,0.E0));
#118=DIRECTION('',(1.E0,0.E0,0.E0));
#119=DIRECTION('',(0.E0,-1.E0,0.E0));
#120=AXIS2_PLACEMENT_3D('',#117,#118,#119);
#121=PLANE('',#120);
#123=ORIENTED_EDGE('',*,*,#122,.F.);
#125=ORIENTED_EDGE('',*,*,#124,.F.);
#126=EDGE_LOOP('',(#123,#125));
#127=FACE_OUTER_BOUND('',#126,.F.);
#128=ADVANCED_FACE('',(#127),#121,.F.);
#129=CARTESIAN_POINT('',(2.499999999469E-1,0.E0,0.E0));
#130=DIRECTION('',(1.E0,0.E0,0.E0));
#131=DIRECTION('',(0.E0,0.E0,-1.E0));
#132=AXIS2_PLACEMENT_3D('',#129,#130,#131);
#133=CONICAL_SURFACE('',#132,1.284999999947E0,4.5E1);
#134=ORIENTED_EDGE('',*,*,#122,.T.);
#136=ORIENTED_EDGE('',*,*,#135,.T.);
#138=ORIENTED_EDGE('',*,*,#137,.F.);
#140=ORIENTED_EDGE('',*,*,#139,.F.);
#141=EDGE_LOOP('',(#134,#136,#138,#140));
#142=FACE_OUTER_BOUND('',#141,.F.);
#143=ADVANCED_FACE('',(#142),#133,.T.);
#144=CARTESIAN_POINT('',(2.499999999469E-1,0.E0,0.E0));
#145=DIRECTION('',(1.E0,0.E0,0.E0));
#146=DIRECTION('',(0.E0,0.E0,-1.E0));
#147=AXIS2_PLACEMENT_3D('',#144,#145,#146);
#148=CONICAL_SURFACE('',#147,1.284999999947E0,4.5E1);
#149=ORIENTED_EDGE('',*,*,#124,.T.);
#150=ORIENTED_EDGE('',*,*,#139,.T.);
#152=ORIENTED_EDGE('',*,*,#151,.F.);
#153=ORIENTED_EDGE('',*,*,#135,.F.);
#154=EDGE_LOOP('',(#149,#150,#152,#153));
#155=FACE_OUTER_BOUND('',#154,.F.);
#156=ADVANCED_FACE('',(#155),#148,.T.);
#157=CARTESIAN_POINT('',(0.E0,0.E0,0.E0));
#158=DIRECTION('',(1.E0,0.E0,0.E0));
#159=DIRECTION('',(0.E0,-1.E0,0.E0));
#160=AXIS2_PLACEMENT_3D('',#157,#158,#159);
#161=CYLINDRICAL_SURFACE('',#160,1.535E0);
#162=ORIENTED_EDGE('',*,*,#151,.T.);
#164=ORIENTED_EDGE('',*,*,#163,.F.);
#166=ORIENTED_EDGE('',*,*,#165,.F.);
#168=ORIENTED_EDGE('',*,*,#167,.T.);
#169=EDGE_LOOP('',(#162,#164,#166,#168));
#170=FACE_OUTER_BOUND('',#169,.F.);
#171=ADVANCED_FACE('',(#170),#161,.T.);
#172=CARTESIAN_POINT('',(0.E0,0.E0,0.E0));
#173=DIRECTION('',(1.E0,0.E0,0.E0));
#174=DIRECTION('',(0.E0,-1.E0,0.E0));
#175=AXIS2_PLACEMENT_3D('',#172,#173,#174);
#176=CYLINDRICAL_SURFACE('',#175,1.535E0);
#177=ORIENTED_EDGE('',*,*,#137,.T.);
#178=ORIENTED_EDGE('',*,*,#167,.F.);
#180=ORIENTED_EDGE('',*,*,#179,.T.);
#181=ORIENTED_EDGE('',*,*,#163,.T.);
#182=EDGE_LOOP('',(#177,#178,#180,#181));
#183=FACE_OUTER_BOUND('',#182,.F.);
#184=ADVANCED_FACE('',(#183),#176,.T.);
#185=CARTESIAN_POINT('',(1.458E1,0.E0,0.E0));
#186=DIRECTION('',(1.E0,0.E0,0.E0));
#187=DIRECTION('',(0.E0,-1.E0,0.E0));
#188=AXIS2_PLACEMENT_3D('',#185,#186,#187);
#189=PLANE('',#188);
#191=ORIENTED_EDGE('',*,*,#190,.T.);
#193=ORIENTED_EDGE('',*,*,#192,.F.);
#194=EDGE_LOOP('',(#191,#193));
#195=FACE_OUTER_BOUND('',#194,.F.);
#196=ORIENTED_EDGE('',*,*,#165,.T.);
#197=ORIENTED_EDGE('',*,*,#179,.F.);
#198=EDGE_LOOP('',(#196,#197));
#199=FACE_BOUND('',#198,.F.);
#200=ADVANCED_FACE('',(#195,#199),#189,.F.);
#201=CARTESIAN_POINT('',(0.E0,0.E0,0.E0));
#202=DIRECTION('',(1.E0,0.E0,0.E0));
#203=DIRECTION('',(0.E0,-1.E0,0.E0));
#204=AXIS2_PLACEMENT_3D('',#201,#202,#203);
#205=CYLINDRICAL_SURFACE('',#204,2.185E0);
#207=ORIENTED_EDGE('',*,*,#206,.F.);
#209=ORIENTED_EDGE('',*,*,#208,.T.);
#210=ORIENTED_EDGE('',*,*,#190,.F.);
#212=ORIENTED_EDGE('',*,*,#211,.F.);
#213=EDGE_LOOP('',(#207,#209,#210,#212));
#214=FACE_OUTER_BOUND('',#213,.F.);
#215=ADVANCED_FACE('',(#214),#205,.T.);
#216=CARTESIAN_POINT('',(1.723000000002E1,0.E0,0.E0));
#217=DIRECTION('',(-1.E0,0.E0,0.E0));
#218=DIRECTION('',(0.E0,0.E0,-1.E0));
#219=AXIS2_PLACEMENT_3D('',#216,#217,#218);
#220=CONICAL_SURFACE('',#219,1.934999999978E0,4.5E1);
#221=ORIENTED_EDGE('',*,*,#206,.T.);
#223=ORIENTED_EDGE('',*,*,#222,.T.);
#225=ORIENTED_EDGE('',*,*,#224,.F.);
#227=ORIENTED_EDGE('',*,*,#226,.F.);
#228=EDGE_LOOP('',(#221,#223,#225,#227));
#229=FACE_OUTER_BOUND('',#228,.F.);
#230=ADVANCED_FACE('',(#229),#220,.T.);
#231=CARTESIAN_POINT('',(1.723000000002E1,0.E0,0.E0));
#232=DIRECTION('',(-1.E0,0.E0,0.E0));
#233=DIRECTION('',(0.E0,0.E0,-1.E0));
#234=AXIS2_PLACEMENT_3D('',#231,#232,#233);
#235=CONICAL_SURFACE('',#234,1.934999999978E0,4.5E1);
#237=ORIENTED_EDGE('',*,*,#236,.T.);
#238=ORIENTED_EDGE('',*,*,#226,.T.);
#240=ORIENTED_EDGE('',*,*,#239,.F.);
#241=ORIENTED_EDGE('',*,*,#222,.F.);
#242=EDGE_LOOP('',(#237,#238,#240,#241));
#243=FACE_OUTER_BOUND('',#242,.F.);
#244=ADVANCED_FACE('',(#243),#235,.T.);
#245=CARTESIAN_POINT('',(0.E0,0.E0,0.E0));
#246=DIRECTION('',(1.E0,0.E0,0.E0));
#247=DIRECTION('',(0.E0,-1.E0,0.E0));
#248=AXIS2_PLACEMENT_3D('',#245,#246,#247);
#249=CYLINDRICAL_SURFACE('',#248,2.185E0);
#250=ORIENTED_EDGE('',*,*,#236,.F.);
#251=ORIENTED_EDGE('',*,*,#211,.T.);
#252=ORIENTED_EDGE('',*,*,#192,.T.);
#253=ORIENTED_EDGE('',*,*,#208,.F.);
#254=EDGE_LOOP('',(#250,#251,#252,#253));
#255=FACE_OUTER_BOUND('',#254,.F.);
#256=ADVANCED_FACE('',(#255),#249,.T.);
#257=CARTESIAN_POINT('',(1.748E1,0.E0,0.E0));
#258=DIRECTION('',(1.E0,0.E0,0.E0));
#259=DIRECTION('',(0.E0,-1.E0,0.E0));
#260=AXIS2_PLACEMENT_3D('',#257,#258,#259);
#261=PLANE('',#260);
#262=ORIENTED_EDGE('',*,*,#224,.T.);
#263=ORIENTED_EDGE('',*,*,#239,.T.);
#264=EDGE_LOOP('',(#262,#263));
#265=FACE_OUTER_BOUND('',#264,.F.);
#266=ADVANCED_FACE('',(#265),#261,.T.);
#267=CLOSED_SHELL('',(#128,#143,#156,#171,#184,#200,#215,#230,#244,#256,#266));
#268=MANIFOLD_SOLID_BREP('',#267);
#270=DIMENSIONAL_EXPONENTS(0.E0,0.E0,0.E0,0.E0,0.E0,0.E0,0.E0);
#272=PLANE_ANGLE_MEASURE_WITH_UNIT(PLANE_ANGLE_MEASURE(1.745329251994E-2),#271);
#273=(CONVERSION_BASED_UNIT('DEGREE',#272)NAMED_UNIT(*)PLANE_ANGLE_UNIT());
#275=UNCERTAINTY_MEASURE_WITH_UNIT(LENGTH_MEASURE(1.937686139258E-3),#269,
'closure',
'Maximum model space distance between geometric entities at asserted connectivities');
#276=(GEOMETRIC_REPRESENTATION_CONTEXT(3)GLOBAL_UNCERTAINTY_ASSIGNED_CONTEXT((
#275))GLOBAL_UNIT_ASSIGNED_CONTEXT((#269,#273,#274))REPRESENTATION_CONTEXT
('ID1','3'));
#278=APPLICATION_CONTEXT(
'CONFIGURATION CONTROLLED 3D DESIGNS OF MECHANICAL PARTS AND ASSEMBLIES');
#279=APPLICATION_PROTOCOL_DEFINITION('international standard',
'config_control_design',1994,#278);
#280=DESIGN_CONTEXT('',#278,'design');
#281=MECHANICAL_CONTEXT('',#278,'mechanical');
#282=PRODUCT('A114017','A114017','NOT SPECIFIED',(#281));
#283=PRODUCT_DEFINITION_FORMATION_WITH_SPECIFIED_SOURCE('5','LAST_VERSION',#282,
.MADE.);
#287=PRODUCT_CATEGORY('part','');
#288=PRODUCT_RELATED_PRODUCT_CATEGORY('detail','',(#282));
#289=PRODUCT_CATEGORY_RELATIONSHIP('','',#287,#288);
#290=SECURITY_CLASSIFICATION_LEVEL('unclassified');
#291=SECURITY_CLASSIFICATION('','',#290);
#292=CC_DESIGN_SECURITY_CLASSIFICATION(#291,(#283));
#293=APPROVAL_STATUS('approved');
#294=APPROVAL(#293,'');
#295=CC_DESIGN_APPROVAL(#294,(#291,#283,#284));
#296=CALENDAR_DATE(120,14,2);
#297=COORDINATED_UNIVERSAL_TIME_OFFSET(8,0,.AHEAD.);
#298=LOCAL_TIME(16,14,5.6E1,#297);
#299=DATE_AND_TIME(#296,#298);
#300=APPROVAL_DATE_TIME(#299,#294);
#301=DATE_TIME_ROLE('creation_date');
#302=CC_DESIGN_DATE_AND_TIME_ASSIGNMENT(#299,#301,(#284));
#303=DATE_TIME_ROLE('classification_date');
#304=CC_DESIGN_DATE_AND_TIME_ASSIGNMENT(#299,#303,(#291));
#305=PERSON('UNSPECIFIED','UNSPECIFIED',$,$,$,$);
#306=ORGANIZATION('UNSPECIFIED','UNSPECIFIED','UNSPECIFIED');
#307=PERSON_AND_ORGANIZATION(#305,#306);
#308=APPROVAL_ROLE('approver');
#309=APPROVAL_PERSON_ORGANIZATION(#307,#294,#308);
#310=PERSON_AND_ORGANIZATION_ROLE('creator');
#311=CC_DESIGN_PERSON_AND_ORGANIZATION_ASSIGNMENT(#307,#310,(#283,#284));
#312=PERSON_AND_ORGANIZATION_ROLE('design_supplier');
#313=CC_DESIGN_PERSON_AND_ORGANIZATION_ASSIGNMENT(#307,#312,(#283));
#314=PERSON_AND_ORGANIZATION_ROLE('classification_officer');
#315=CC_DESIGN_PERSON_AND_ORGANIZATION_ASSIGNMENT(#307,#314,(#291));
#316=PERSON_AND_ORGANIZATION_ROLE('design_owner');
#317=CC_DESIGN_PERSON_AND_ORGANIZATION_ASSIGNMENT(#307,#316,(#282));
#5=CIRCLE('',#4,1.035E0);
#10=CIRCLE('',#9,1.035E0);
#23=CIRCLE('',#22,1.535E0);
#32=CIRCLE('',#31,1.535E0);
#41=CIRCLE('',#40,1.535E0);
#46=CIRCLE('',#45,1.535E0);
#51=CIRCLE('',#50,2.185E0);
#56=CIRCLE('',#55,2.185E0);
#61=CIRCLE('',#60,2.185E0);
#74=CIRCLE('',#73,2.185E0);
#87=CIRCLE('',#86,1.685E0);
#92=CIRCLE('',#91,1.685E0);
#122=EDGE_CURVE('',#111,#112,#5,.T.);
#124=EDGE_CURVE('',#112,#111,#10,.T.);
#135=EDGE_CURVE('',#112,#116,#18,.T.);
#137=EDGE_CURVE('',#115,#116,#41,.T.);
#139=EDGE_CURVE('',#111,#115,#14,.T.);
#151=EDGE_CURVE('',#116,#115,#23,.T.);
#163=EDGE_CURVE('',#100,#115,#27,.T.);
#165=EDGE_CURVE('',#99,#100,#32,.T.);
#167=EDGE_CURVE('',#99,#116,#36,.T.);
#179=EDGE_CURVE('',#99,#100,#46,.T.);
#190=EDGE_CURVE('',#95,#96,#51,.T.);
#192=EDGE_CURVE('',#95,#96,#56,.T.);
#206=EDGE_CURVE('',#103,#104,#61,.T.);
#208=EDGE_CURVE('',#103,#96,#82,.T.);
#211=EDGE_CURVE('',#104,#95,#78,.T.);
#222=EDGE_CURVE('',#104,#108,#69,.T.);
#224=EDGE_CURVE('',#107,#108,#87,.T.);
#226=EDGE_CURVE('',#103,#107,#65,.T.);
#236=EDGE_CURVE('',#104,#103,#74,.T.);
#239=EDGE_CURVE('',#108,#107,#92,.T.);
#269=(LENGTH_UNIT()NAMED_UNIT(*)SI_UNIT(.MILLI.,.METRE.));
#271=(NAMED_UNIT(*)PLANE_ANGLE_UNIT()SI_UNIT($,.RADIAN.));
#274=(NAMED_UNIT(*)SI_UNIT($,.STERADIAN.)SOLID_ANGLE_UNIT());
#277=ADVANCED_BREP_SHAPE_REPRESENTATION('',(#268),#276);
#284=PRODUCT_DEFINITION('design','',#283,#280);
#285=PRODUCT_DEFINITION_SHAPE('','SHAPE FOR A114017.',#284);
#286=SHAPE_DEFINITION_REPRESENTATION(#285,#277);
ENDSEC;
END-ISO-10303-21;
