ISO-10303-21;
HEADER;
FILE_DESCRIPTION((''),'2;1');
FILE_NAME('A114017','2015-04-14T',('jarry.li'),(''),
'PRO/ENGINEER BY PARAMETRIC TECHNOLOGY CORPORATION, 2013230',
'PRO/ENGINEER BY PARAMETRIC TECHNOLOGY CORPORATION, 2013230','');
FILE_SCHEMA(('CONFIG_CONTROL_DESIGN'));
ENDSEC;
DATA;
#1=CARTESIAN_POINT('',(2.9E0,0.E0,0.E0));
#2=DIRECTION('',(-1.E0,0.E0,0.E0));
#3=DIRECTION('',(0.E0,1.E0,0.E0));
#4=AXIS2_PLACEMENT_3D('',#1,#2,#3);
#6=CARTESIAN_POINT('',(2.9E0,0.E0,0.E0));
#7=DIRECTION('',(-1.E0,0.E0,0.E0));
#8=DIRECTION('',(0.E0,-1.E0,0.E0));
#9=AXIS2_PLACEMENT_3D('',#6,#7,#8);
#11=DIRECTION('',(7.071067811865E-1,-7.071067811865E-1,-1.920830448597E-12));
#12=VECTOR('',#11,7.071067811871E-1);
#13=CARTESIAN_POINT('',(2.400000000014E0,2.184999999986E0,-4.812745368108E-11));
#14=LINE('',#13,#12);
#15=CARTESIAN_POINT('',(2.4E0,0.E0,0.E0));
#16=DIRECTION('',(-1.E0,0.E0,0.E0));
#17=DIRECTION('',(0.E0,1.E0,0.E0));
#18=AXIS2_PLACEMENT_3D('',#15,#16,#17);
#20=DIRECTION('',(-1.E0,5.712282498835E-12,2.005318002959E-11));
#21=VECTOR('',#20,2.400000000014E0);
#22=CARTESIAN_POINT('',(2.400000000014E0,2.184999999986E0,-4.812745368108E-11));
#23=LINE('',#22,#21);
#24=DIRECTION('',(-1.E0,-5.712282498835E-12,-2.005330377095E-11));
#25=VECTOR('',#24,2.400000000014E0);
#26=CARTESIAN_POINT('',(2.400000000014E0,-2.184999999986E0,4.812775066035E-11));
#27=LINE('',#26,#25);
#28=CARTESIAN_POINT('',(2.4E0,0.E0,0.E0));
#29=DIRECTION('',(-1.E0,0.E0,0.E0));
#30=DIRECTION('',(0.E0,-1.E0,0.E0));
#31=AXIS2_PLACEMENT_3D('',#28,#29,#30);
#33=DIRECTION('',(7.071067811865E-1,7.071067811865E-1,1.921018675640E-12));
#34=VECTOR('',#33,7.071067811871E-1);
#35=CARTESIAN_POINT('',(2.400000000014E0,-2.184999999986E0,4.812775066035E-11));
#36=LINE('',#35,#34);
#37=CARTESIAN_POINT('',(0.E0,0.E0,0.E0));
#38=DIRECTION('',(1.E0,0.E0,0.E0));
#39=DIRECTION('',(0.E0,1.E0,0.E0));
#40=AXIS2_PLACEMENT_3D('',#37,#38,#39);
#42=CARTESIAN_POINT('',(0.E0,0.E0,0.E0));
#43=DIRECTION('',(-1.E0,0.E0,0.E0));
#44=DIRECTION('',(0.E0,1.E0,0.E0));
#45=AXIS2_PLACEMENT_3D('',#42,#43,#44);
#47=CARTESIAN_POINT('',(0.E0,0.E0,0.E0));
#48=DIRECTION('',(1.E0,0.E0,0.E0));
#49=DIRECTION('',(0.E0,-1.E0,0.E0));
#50=AXIS2_PLACEMENT_3D('',#47,#48,#49);
#52=CARTESIAN_POINT('',(0.E0,0.E0,0.E0));
#53=DIRECTION('',(1.E0,0.E0,0.E0));
#54=DIRECTION('',(0.E0,1.E0,0.E0));
#55=AXIS2_PLACEMENT_3D('',#52,#53,#54);
#57=CARTESIAN_POINT('',(-3.E-1,-1.835E0,1.184173939461E-11));
#58=DIRECTION('',(0.E0,-6.453265005701E-12,-1.E0));
#59=DIRECTION('',(0.E0,1.E0,-6.453265005701E-12));
#60=AXIS2_PLACEMENT_3D('',#57,#58,#59);
#62=CARTESIAN_POINT('',(-3.E-1,0.E0,0.E0));
#63=DIRECTION('',(1.E0,0.E0,0.E0));
#64=DIRECTION('',(0.E0,-1.E0,0.E0));
#65=AXIS2_PLACEMENT_3D('',#62,#63,#64);
#67=DIRECTION('',(-1.E0,-5.009835563700E-12,1.728742459400E-11));
#68=VECTOR('',#67,1.090000000005E1);
#69=CARTESIAN_POINT('',(-3.E-1,1.535E0,-3.464465129836E-13));
#70=LINE('',#69,#68);
#71=CARTESIAN_POINT('',(-1.12E1,0.E0,0.E0));
#72=DIRECTION('',(-1.E0,0.E0,0.E0));
#73=DIRECTION('',(0.E0,1.E0,0.E0));
#74=AXIS2_PLACEMENT_3D('',#71,#72,#73);
#76=DIRECTION('',(-1.E0,5.009794821571E-12,-1.728739350221E-11));
#77=VECTOR('',#76,1.090000000005E1);
#78=CARTESIAN_POINT('',(-3.E-1,-1.535E0,3.460606166766E-13));
#79=LINE('',#78,#77);
#80=CARTESIAN_POINT('',(-3.E-1,0.E0,0.E0));
#81=DIRECTION('',(1.E0,0.E0,0.E0));
#82=DIRECTION('',(0.E0,1.E0,0.E0));
#83=AXIS2_PLACEMENT_3D('',#80,#81,#82);
#85=CARTESIAN_POINT('',(-1.12E1,0.E0,0.E0));
#86=DIRECTION('',(-1.E0,0.E0,0.E0));
#87=DIRECTION('',(0.E0,-1.E0,0.E0));
#88=AXIS2_PLACEMENT_3D('',#85,#86,#87);
#90=CARTESIAN_POINT('',(-3.E-1,1.835E0,-1.184195103088E-11));
#91=DIRECTION('',(0.E0,6.453379497451E-12,1.E0));
#92=DIRECTION('',(0.E0,-1.E0,6.453379497451E-12));
#93=AXIS2_PLACEMENT_3D('',#90,#91,#92);
#95=DIRECTION('',(7.071067811865E-1,-7.071067811866E-1,-2.685944120792E-11));
#96=VECTOR('',#95,7.071067811787E-1);
#97=CARTESIAN_POINT('',(-1.170000000005E1,-1.034999999951E0,
-1.690940355416E-10));
#98=LINE('',#97,#96);
#99=CARTESIAN_POINT('',(-1.17E1,0.E0,0.E0));
#100=DIRECTION('',(-1.E0,0.E0,0.E0));
#101=DIRECTION('',(0.E0,1.E0,0.E0));
#102=AXIS2_PLACEMENT_3D('',#99,#100,#101);
#104=CARTESIAN_POINT('',(-1.17E1,0.E0,0.E0));
#105=DIRECTION('',(-1.E0,0.E0,0.E0));
#106=DIRECTION('',(0.E0,-1.E0,0.E0));
#107=AXIS2_PLACEMENT_3D('',#104,#105,#106);
#109=DIRECTION('',(7.071067811865E-1,7.071067811866E-1,2.685954283315E-11));
#110=VECTOR('',#109,7.071067811787E-1);
#111=CARTESIAN_POINT('',(-1.170000000005E1,1.034999999951E0,
1.690939166859E-10));
#112=LINE('',#111,#110);
#113=CARTESIAN_POINT('',(0.E0,2.185E0,0.E0));
#114=CARTESIAN_POINT('',(0.E0,-2.185E0,0.E0));
#115=VERTEX_POINT('',#113);
#116=VERTEX_POINT('',#114);
#117=CARTESIAN_POINT('',(2.4E0,2.185E0,0.E0));
#118=CARTESIAN_POINT('',(2.4E0,-2.185E0,0.E0));
#119=VERTEX_POINT('',#117);
#120=VERTEX_POINT('',#118);
#121=CARTESIAN_POINT('',(2.9E0,1.685E0,0.E0));
#122=CARTESIAN_POINT('',(2.9E0,-1.685E0,0.E0));
#123=VERTEX_POINT('',#121);
#124=VERTEX_POINT('',#122);
#125=CARTESIAN_POINT('',(-1.17E1,1.035E0,0.E0));
#126=CARTESIAN_POINT('',(-1.17E1,-1.035E0,0.E0));
#127=VERTEX_POINT('',#125);
#128=VERTEX_POINT('',#126);
#129=CARTESIAN_POINT('',(-1.12E1,1.535E0,0.E0));
#130=CARTESIAN_POINT('',(-1.12E1,-1.535E0,0.E0));
#131=VERTEX_POINT('',#129);
#132=VERTEX_POINT('',#130);
#133=CARTESIAN_POINT('',(-3.E-1,-1.535E0,0.E0));
#134=CARTESIAN_POINT('',(-3.E-1,1.535E0,0.E0));
#135=VERTEX_POINT('',#133);
#136=VERTEX_POINT('',#134);
#137=CARTESIAN_POINT('',(0.E0,-1.835E0,0.E0));
#138=CARTESIAN_POINT('',(0.E0,1.835E0,0.E0));
#139=VERTEX_POINT('',#137);
#140=VERTEX_POINT('',#138);
#141=CARTESIAN_POINT('',(2.9E0,0.E0,0.E0));
#142=DIRECTION('',(1.E0,0.E0,0.E0));
#143=DIRECTION('',(0.E0,-1.E0,0.E0));
#144=AXIS2_PLACEMENT_3D('',#141,#142,#143);
#145=PLANE('',#144);
#147=ORIENTED_EDGE('',*,*,#146,.T.);
#149=ORIENTED_EDGE('',*,*,#148,.T.);
#150=EDGE_LOOP('',(#147,#149));
#151=FACE_OUTER_BOUND('',#150,.F.);
#152=ADVANCED_FACE('',(#151),#145,.T.);
#153=CARTESIAN_POINT('',(2.650000000011E0,0.E0,0.E0));
#154=DIRECTION('',(-1.E0,0.E0,0.E0));
#155=DIRECTION('',(0.E0,0.E0,-1.E0));
#156=AXIS2_PLACEMENT_3D('',#153,#154,#155);
#157=CONICAL_SURFACE('',#156,1.934999999989E0,4.5E1);
#159=ORIENTED_EDGE('',*,*,#158,.T.);
#161=ORIENTED_EDGE('',*,*,#160,.T.);
#162=ORIENTED_EDGE('',*,*,#146,.F.);
#164=ORIENTED_EDGE('',*,*,#163,.F.);
#165=EDGE_LOOP('',(#159,#161,#162,#164));
#166=FACE_OUTER_BOUND('',#165,.F.);
#167=ADVANCED_FACE('',(#166),#157,.T.);
#168=CARTESIAN_POINT('',(-1.243E1,0.E0,0.E0));
#169=DIRECTION('',(1.E0,0.E0,0.E0));
#170=DIRECTION('',(0.E0,-1.E0,0.E0));
#171=AXIS2_PLACEMENT_3D('',#168,#169,#170);
#172=CYLINDRICAL_SURFACE('',#171,2.185E0);
#173=ORIENTED_EDGE('',*,*,#158,.F.);
#175=ORIENTED_EDGE('',*,*,#174,.T.);
#177=ORIENTED_EDGE('',*,*,#176,.T.);
#179=ORIENTED_EDGE('',*,*,#178,.F.);
#180=EDGE_LOOP('',(#173,#175,#177,#179));
#181=FACE_OUTER_BOUND('',#180,.F.);
#182=ADVANCED_FACE('',(#181),#172,.T.);
#183=CARTESIAN_POINT('',(-1.243E1,0.E0,0.E0));
#184=DIRECTION('',(1.E0,0.E0,0.E0));
#185=DIRECTION('',(0.E0,-1.E0,0.E0));
#186=AXIS2_PLACEMENT_3D('',#183,#184,#185);
#187=CYLINDRICAL_SURFACE('',#186,2.185E0);
#189=ORIENTED_EDGE('',*,*,#188,.F.);
#190=ORIENTED_EDGE('',*,*,#178,.T.);
#192=ORIENTED_EDGE('',*,*,#191,.F.);
#193=ORIENTED_EDGE('',*,*,#174,.F.);
#194=EDGE_LOOP('',(#189,#190,#192,#193));
#195=FACE_OUTER_BOUND('',#194,.F.);
#196=ADVANCED_FACE('',(#195),#187,.T.);
#197=CARTESIAN_POINT('',(2.650000000011E0,0.E0,0.E0));
#198=DIRECTION('',(-1.E0,0.E0,0.E0));
#199=DIRECTION('',(0.E0,0.E0,-1.E0));
#200=AXIS2_PLACEMENT_3D('',#197,#198,#199);
#201=CONICAL_SURFACE('',#200,1.934999999989E0,4.5E1);
#202=ORIENTED_EDGE('',*,*,#188,.T.);
#203=ORIENTED_EDGE('',*,*,#163,.T.);
#204=ORIENTED_EDGE('',*,*,#148,.F.);
#205=ORIENTED_EDGE('',*,*,#160,.F.);
#206=EDGE_LOOP('',(#202,#203,#204,#205));
#207=FACE_OUTER_BOUND('',#206,.F.);
#208=ADVANCED_FACE('',(#207),#201,.T.);
#209=CARTESIAN_POINT('',(0.E0,0.E0,0.E0));
#210=DIRECTION('',(1.E0,0.E0,0.E0));
#211=DIRECTION('',(0.E0,-1.E0,0.E0));
#212=AXIS2_PLACEMENT_3D('',#209,#210,#211);
#213=PLANE('',#212);
#214=ORIENTED_EDGE('',*,*,#191,.T.);
#215=ORIENTED_EDGE('',*,*,#176,.F.);
#216=EDGE_LOOP('',(#214,#215));
#217=FACE_OUTER_BOUND('',#216,.F.);
#219=ORIENTED_EDGE('',*,*,#218,.F.);
#221=ORIENTED_EDGE('',*,*,#220,.F.);
#222=EDGE_LOOP('',(#219,#221));
#223=FACE_BOUND('',#222,.F.);
#224=ADVANCED_FACE('',(#217,#223),#213,.F.);
#225=CARTESIAN_POINT('',(-3.E-1,0.E0,0.E0));
#226=DIRECTION('',(1.E0,0.E0,0.E0));
#227=DIRECTION('',(0.E0,-9.998551867322E-1,1.701780140474E-2));
#228=AXIS2_PLACEMENT_3D('',#225,#226,#227);
#229=TOROIDAL_SURFACE('',#228,1.835E0,3.E-1);
#231=ORIENTED_EDGE('',*,*,#230,.F.);
#233=ORIENTED_EDGE('',*,*,#232,.T.);
#234=ORIENTED_EDGE('',*,*,#218,.T.);
#236=ORIENTED_EDGE('',*,*,#235,.F.);
#237=EDGE_LOOP('',(#231,#233,#234,#236));
#238=FACE_OUTER_BOUND('',#237,.F.);
#239=ADVANCED_FACE('',(#238),#229,.F.);
#240=CARTESIAN_POINT('',(-1.243E1,0.E0,0.E0));
#241=DIRECTION('',(1.E0,0.E0,0.E0));
#242=DIRECTION('',(0.E0,-1.E0,0.E0));
#243=AXIS2_PLACEMENT_3D('',#240,#241,#242);
#244=CYLINDRICAL_SURFACE('',#243,1.535E0);
#245=ORIENTED_EDGE('',*,*,#230,.T.);
#247=ORIENTED_EDGE('',*,*,#246,.T.);
#249=ORIENTED_EDGE('',*,*,#248,.T.);
#251=ORIENTED_EDGE('',*,*,#250,.F.);
#252=EDGE_LOOP('',(#245,#247,#249,#251));
#253=FACE_OUTER_BOUND('',#252,.F.);
#254=ADVANCED_FACE('',(#253),#244,.T.);
#255=CARTESIAN_POINT('',(-1.243E1,0.E0,0.E0));
#256=DIRECTION('',(1.E0,0.E0,0.E0));
#257=DIRECTION('',(0.E0,-1.E0,0.E0));
#258=AXIS2_PLACEMENT_3D('',#255,#256,#257);
#259=CYLINDRICAL_SURFACE('',#258,1.535E0);
#261=ORIENTED_EDGE('',*,*,#260,.T.);
#262=ORIENTED_EDGE('',*,*,#250,.T.);
#264=ORIENTED_EDGE('',*,*,#263,.T.);
#265=ORIENTED_EDGE('',*,*,#246,.F.);
#266=EDGE_LOOP('',(#261,#262,#264,#265));
#267=FACE_OUTER_BOUND('',#266,.F.);
#268=ADVANCED_FACE('',(#267),#259,.T.);
#269=CARTESIAN_POINT('',(-3.E-1,0.E0,0.E0));
#270=DIRECTION('',(1.E0,0.E0,0.E0));
#271=DIRECTION('',(0.E0,9.998551867322E-1,-1.701780140474E-2));
#272=AXIS2_PLACEMENT_3D('',#269,#270,#271);
#273=TOROIDAL_SURFACE('',#272,1.835E0,3.E-1);
#274=ORIENTED_EDGE('',*,*,#260,.F.);
#275=ORIENTED_EDGE('',*,*,#235,.T.);
#276=ORIENTED_EDGE('',*,*,#220,.T.);
#277=ORIENTED_EDGE('',*,*,#232,.F.);
#278=EDGE_LOOP('',(#274,#275,#276,#277));
#279=FACE_OUTER_BOUND('',#278,.F.);
#280=ADVANCED_FACE('',(#279),#273,.F.);
#281=CARTESIAN_POINT('',(-1.145000000005E1,0.E0,0.E0));
#282=DIRECTION('',(1.E0,0.E0,0.E0));
#283=DIRECTION('',(0.E0,0.E0,-1.E0));
#284=AXIS2_PLACEMENT_3D('',#281,#282,#283);
#285=CONICAL_SURFACE('',#284,1.284999999953E0,4.5E1);
#287=ORIENTED_EDGE('',*,*,#286,.T.);
#289=ORIENTED_EDGE('',*,*,#288,.T.);
#290=ORIENTED_EDGE('',*,*,#263,.F.);
#292=ORIENTED_EDGE('',*,*,#291,.F.);
#293=EDGE_LOOP('',(#287,#289,#290,#292));
#294=FACE_OUTER_BOUND('',#293,.F.);
#295=ADVANCED_FACE('',(#294),#285,.T.);
#296=CARTESIAN_POINT('',(-1.17E1,0.E0,0.E0));
#297=DIRECTION('',(1.E0,0.E0,0.E0));
#298=DIRECTION('',(0.E0,-1.E0,0.E0));
#299=AXIS2_PLACEMENT_3D('',#296,#297,#298);
#300=PLANE('',#299);
#302=ORIENTED_EDGE('',*,*,#301,.F.);
#303=ORIENTED_EDGE('',*,*,#286,.F.);
#304=EDGE_LOOP('',(#302,#303));
#305=FACE_OUTER_BOUND('',#304,.F.);
#306=ADVANCED_FACE('',(#305),#300,.F.);
#307=CARTESIAN_POINT('',(-1.145000000005E1,0.E0,0.E0));
#308=DIRECTION('',(1.E0,0.E0,0.E0));
#309=DIRECTION('',(0.E0,0.E0,-1.E0));
#310=AXIS2_PLACEMENT_3D('',#307,#308,#309);
#311=CONICAL_SURFACE('',#310,1.284999999953E0,4.5E1);
#312=ORIENTED_EDGE('',*,*,#301,.T.);
#313=ORIENTED_EDGE('',*,*,#291,.T.);
#314=ORIENTED_EDGE('',*,*,#248,.F.);
#315=ORIENTED_EDGE('',*,*,#288,.F.);
#316=EDGE_LOOP('',(#312,#313,#314,#315));
#317=FACE_OUTER_BOUND('',#316,.F.);
#318=ADVANCED_FACE('',(#317),#311,.T.);
#319=CLOSED_SHELL('',(#152,#167,#182,#196,#208,#224,#239,#254,#268,#280,#295,
#306,#318));
#320=MANIFOLD_SOLID_BREP('',#319);
#322=DIMENSIONAL_EXPONENTS(0.E0,0.E0,0.E0,0.E0,0.E0,0.E0,0.E0);
#324=PLANE_ANGLE_MEASURE_WITH_UNIT(PLANE_ANGLE_MEASURE(1.745329251994E-2),#323);
#325=(CONVERSION_BASED_UNIT('DEGREE',#324)NAMED_UNIT(*)PLANE_ANGLE_UNIT());
#327=UNCERTAINTY_MEASURE_WITH_UNIT(LENGTH_MEASURE(1.620730729006E-3),#321,
'closure',
'Maximum model space distance between geometric entities at asserted connectivities');
#328=(GEOMETRIC_REPRESENTATION_CONTEXT(3)GLOBAL_UNCERTAINTY_ASSIGNED_CONTEXT((
#327))GLOBAL_UNIT_ASSIGNED_CONTEXT((#321,#325,#326))REPRESENTATION_CONTEXT
('ID1','3'));
#330=APPLICATION_CONTEXT(
'CONFIGURATION CONTROLLED 3D DESIGNS OF MECHANICAL PARTS AND ASSEMBLIES');
#331=APPLICATION_PROTOCOL_DEFINITION('international standard',
'config_control_design',1994,#330);
#332=DESIGN_CONTEXT('',#330,'design');
#333=MECHANICAL_CONTEXT('',#330,'mechanical');
#334=PRODUCT('A114017','A114017','NOT SPECIFIED',(#333));
#335=PRODUCT_DEFINITION_FORMATION_WITH_SPECIFIED_SOURCE('2','LAST_VERSION',#334,
.MADE.);
#339=PRODUCT_CATEGORY('part','');
#340=PRODUCT_RELATED_PRODUCT_CATEGORY('detail','',(#334));
#341=PRODUCT_CATEGORY_RELATIONSHIP('','',#339,#340);
#342=SECURITY_CLASSIFICATION_LEVEL('unclassified');
#343=SECURITY_CLASSIFICATION('','',#342);
#344=CC_DESIGN_SECURITY_CLASSIFICATION(#343,(#335));
#345=APPROVAL_STATUS('approved');
#346=APPROVAL(#345,'');
#347=CC_DESIGN_APPROVAL(#346,(#343,#335,#336));
#348=CALENDAR_DATE(115,14,4);
#349=COORDINATED_UNIVERSAL_TIME_OFFSET(8,0,.AHEAD.);
#350=LOCAL_TIME(11,50,4.E1,#349);
#351=DATE_AND_TIME(#348,#350);
#352=APPROVAL_DATE_TIME(#351,#346);
#353=DATE_TIME_ROLE('creation_date');
#354=CC_DESIGN_DATE_AND_TIME_ASSIGNMENT(#351,#353,(#336));
#355=DATE_TIME_ROLE('classification_date');
#356=CC_DESIGN_DATE_AND_TIME_ASSIGNMENT(#351,#355,(#343));
#357=PERSON('UNSPECIFIED','UNSPECIFIED',$,$,$,$);
#358=ORGANIZATION('UNSPECIFIED','UNSPECIFIED','UNSPECIFIED');
#359=PERSON_AND_ORGANIZATION(#357,#358);
#360=APPROVAL_ROLE('approver');
#361=APPROVAL_PERSON_ORGANIZATION(#359,#346,#360);
#362=PERSON_AND_ORGANIZATION_ROLE('creator');
#363=CC_DESIGN_PERSON_AND_ORGANIZATION_ASSIGNMENT(#359,#362,(#335,#336));
#364=PERSON_AND_ORGANIZATION_ROLE('design_supplier');
#365=CC_DESIGN_PERSON_AND_ORGANIZATION_ASSIGNMENT(#359,#364,(#335));
#366=PERSON_AND_ORGANIZATION_ROLE('classification_officer');
#367=CC_DESIGN_PERSON_AND_ORGANIZATION_ASSIGNMENT(#359,#366,(#343));
#368=PERSON_AND_ORGANIZATION_ROLE('design_owner');
#369=CC_DESIGN_PERSON_AND_ORGANIZATION_ASSIGNMENT(#359,#368,(#334));
#5=CIRCLE('',#4,1.685E0);
#10=CIRCLE('',#9,1.685E0);
#19=CIRCLE('',#18,2.185E0);
#32=CIRCLE('',#31,2.185E0);
#41=CIRCLE('',#40,2.185E0);
#46=CIRCLE('',#45,2.185E0);
#51=CIRCLE('',#50,1.835E0);
#56=CIRCLE('',#55,1.835E0);
#61=CIRCLE('',#60,3.E-1);
#66=CIRCLE('',#65,1.535E0);
#75=CIRCLE('',#74,1.535E0);
#84=CIRCLE('',#83,1.535E0);
#89=CIRCLE('',#88,1.535E0);
#94=CIRCLE('',#93,3.E-1);
#103=CIRCLE('',#102,1.035E0);
#108=CIRCLE('',#107,1.035E0);
#146=EDGE_CURVE('',#123,#124,#5,.T.);
#148=EDGE_CURVE('',#124,#123,#10,.T.);
#158=EDGE_CURVE('',#119,#120,#19,.T.);
#160=EDGE_CURVE('',#120,#124,#36,.T.);
#163=EDGE_CURVE('',#119,#123,#14,.T.);
#174=EDGE_CURVE('',#119,#115,#23,.T.);
#176=EDGE_CURVE('',#115,#116,#46,.T.);
#178=EDGE_CURVE('',#120,#116,#27,.T.);
#188=EDGE_CURVE('',#120,#119,#32,.T.);
#191=EDGE_CURVE('',#115,#116,#41,.T.);
#218=EDGE_CURVE('',#139,#140,#51,.T.);
#220=EDGE_CURVE('',#140,#139,#56,.T.);
#230=EDGE_CURVE('',#135,#136,#66,.T.);
#232=EDGE_CURVE('',#135,#139,#61,.T.);
#235=EDGE_CURVE('',#136,#140,#94,.T.);
#246=EDGE_CURVE('',#136,#131,#70,.T.);
#248=EDGE_CURVE('',#131,#132,#75,.T.);
#250=EDGE_CURVE('',#135,#132,#79,.T.);
#260=EDGE_CURVE('',#136,#135,#84,.T.);
#263=EDGE_CURVE('',#132,#131,#89,.T.);
#286=EDGE_CURVE('',#128,#127,#108,.T.);
#288=EDGE_CURVE('',#127,#131,#112,.T.);
#291=EDGE_CURVE('',#128,#132,#98,.T.);
#301=EDGE_CURVE('',#127,#128,#103,.T.);
#321=(LENGTH_UNIT()NAMED_UNIT(*)SI_UNIT(.MILLI.,.METRE.));
#323=(NAMED_UNIT(*)PLANE_ANGLE_UNIT()SI_UNIT($,.RADIAN.));
#326=(NAMED_UNIT(*)SI_UNIT($,.STERADIAN.)SOLID_ANGLE_UNIT());
#329=ADVANCED_BREP_SHAPE_REPRESENTATION('',(#320),#328);
#336=PRODUCT_DEFINITION('design','',#335,#332);
#337=PRODUCT_DEFINITION_SHAPE('','SHAPE FOR A114017.',#336);
#338=SHAPE_DEFINITION_REPRESENTATION(#337,#329);
ENDSEC;
END-ISO-10303-21;
