ISO-10303-21;
HEADER;
FILE_DESCRIPTION((''),'2;1');
FILE_NAME('A114017-SR','2018-04-23T',('OrionLi'),(''),
'PRO/ENGINEER BY PARAMETRIC TECHNOLOGY CORPORATION, 2016360',
'PRO/ENGINEER BY PARAMETRIC TECHNOLOGY CORPORATION, 2016360','');
FILE_SCHEMA(('CONFIG_CONTROL_DESIGN'));
ENDSEC;
DATA;
#2=CARTESIAN_POINT('',(0.E0,0.E0,0.E0));
#3=DIRECTION('',(0.E0,0.E0,-1.E0));
#4=DIRECTION('',(1.E0,0.E0,0.E0));
#5=AXIS2_PLACEMENT_3D('',#2,#3,#4);
#7=CARTESIAN_POINT('',(0.E0,0.E0,0.E0));
#8=DIRECTION('',(0.E0,0.E0,-1.E0));
#9=DIRECTION('',(-1.E0,0.E0,0.E0));
#10=AXIS2_PLACEMENT_3D('',#7,#8,#9);
#12=CARTESIAN_POINT('',(1.365E0,2.300356502505E-10,-8.E-1));
#13=DIRECTION('',(1.685242848048E-10,-1.E0,0.E0));
#14=DIRECTION('',(1.E0,1.685242848048E-10,0.E0));
#15=AXIS2_PLACEMENT_3D('',#12,#13,#14);
#17=CARTESIAN_POINT('',(0.E0,0.E0,-8.E-1));
#18=DIRECTION('',(0.E0,0.E0,-1.E0));
#19=DIRECTION('',(1.E0,0.E0,0.E0));
#20=AXIS2_PLACEMENT_3D('',#17,#18,#19);
#22=CARTESIAN_POINT('',(0.E0,0.E0,-8.E-1));
#23=DIRECTION('',(0.E0,0.E0,-1.E0));
#24=DIRECTION('',(-1.E0,0.E0,0.E0));
#25=AXIS2_PLACEMENT_3D('',#22,#23,#24);
#27=DIRECTION('',(0.E0,6.393513601540E-12,-1.E0));
#28=VECTOR('',#27,2.2E0);
#29=CARTESIAN_POINT('',(-2.165E0,-1.406605040777E-11,-8.E-1));
#30=LINE('',#29,#28);
#31=DIRECTION('',(0.E0,-6.393549673275E-12,-1.E0));
#32=VECTOR('',#31,2.2E0);
#33=CARTESIAN_POINT('',(2.165E0,1.406580928121E-11,-8.E-1));
#34=LINE('',#33,#32);
#35=CARTESIAN_POINT('',(-1.365E0,-2.300361220953E-10,-8.E-1));
#36=DIRECTION('',(-1.685246317495E-10,1.E0,0.E0));
#37=DIRECTION('',(-1.E0,-1.685246317495E-10,0.E0));
#38=AXIS2_PLACEMENT_3D('',#35,#36,#37);
#40=CARTESIAN_POINT('',(0.E0,0.E0,-3.E0));
#41=DIRECTION('',(0.E0,0.E0,1.E0));
#42=DIRECTION('',(1.E0,0.E0,0.E0));
#43=AXIS2_PLACEMENT_3D('',#40,#41,#42);
#45=CARTESIAN_POINT('',(0.E0,0.E0,-3.E0));
#46=DIRECTION('',(0.E0,0.E0,-1.E0));
#47=DIRECTION('',(1.E0,0.E0,0.E0));
#48=AXIS2_PLACEMENT_3D('',#45,#46,#47);
#50=CARTESIAN_POINT('',(0.E0,0.E0,-3.E0));
#51=DIRECTION('',(0.E0,0.E0,-1.E0));
#52=DIRECTION('',(1.E0,0.E0,0.E0));
#53=AXIS2_PLACEMENT_3D('',#50,#51,#52);
#55=DIRECTION('',(0.E0,0.E0,-1.E0));
#56=VECTOR('',#55,1.2E1);
#57=CARTESIAN_POINT('',(1.9E0,0.E0,-3.E0));
#58=LINE('',#57,#56);
#59=CARTESIAN_POINT('',(0.E0,0.E0,-3.E0));
#60=DIRECTION('',(0.E0,0.E0,1.E0));
#61=DIRECTION('',(1.E0,0.E0,0.E0));
#62=AXIS2_PLACEMENT_3D('',#59,#60,#61);
#64=DIRECTION('',(0.E0,0.E0,-1.E0));
#65=VECTOR('',#64,1.2E1);
#66=CARTESIAN_POINT('',(-1.9E0,0.E0,-3.E0));
#67=LINE('',#66,#65);
#68=CARTESIAN_POINT('',(0.E0,0.E0,-1.5E1));
#69=DIRECTION('',(0.E0,0.E0,1.E0));
#70=DIRECTION('',(1.E0,0.E0,0.E0));
#71=AXIS2_PLACEMENT_3D('',#68,#69,#70);
#73=CARTESIAN_POINT('',(0.E0,0.E0,-1.5E1));
#74=DIRECTION('',(0.E0,0.E0,-1.E0));
#75=DIRECTION('',(1.E0,0.E0,0.E0));
#76=AXIS2_PLACEMENT_3D('',#73,#74,#75);
#78=CARTESIAN_POINT('',(0.E0,0.E0,-1.5E1));
#79=DIRECTION('',(0.E0,0.E0,-1.E0));
#80=DIRECTION('',(1.E0,0.E0,0.E0));
#81=AXIS2_PLACEMENT_3D('',#78,#79,#80);
#83=DIRECTION('',(0.E0,0.E0,-1.E0));
#84=VECTOR('',#83,1.05E1);
#85=CARTESIAN_POINT('',(1.5E0,0.E0,-1.5E1));
#86=LINE('',#85,#84);
#87=CARTESIAN_POINT('',(0.E0,0.E0,-1.5E1));
#88=DIRECTION('',(0.E0,0.E0,1.E0));
#89=DIRECTION('',(1.E0,0.E0,0.E0));
#90=AXIS2_PLACEMENT_3D('',#87,#88,#89);
#92=DIRECTION('',(0.E0,0.E0,-1.E0));
#93=VECTOR('',#92,1.05E1);
#94=CARTESIAN_POINT('',(-1.5E0,0.E0,-1.5E1));
#95=LINE('',#94,#93);
#96=CARTESIAN_POINT('',(0.E0,0.E0,-2.55E1));
#97=DIRECTION('',(0.E0,1.E0,0.E0));
#98=DIRECTION('',(1.E0,0.E0,0.E0));
#99=AXIS2_PLACEMENT_3D('',#96,#97,#98);
#101=CARTESIAN_POINT('',(0.E0,0.E0,-2.55E1));
#102=DIRECTION('',(0.E0,0.E0,1.E0));
#103=DIRECTION('',(1.E0,0.E0,0.E0));
#104=AXIS2_PLACEMENT_3D('',#101,#102,#103);
#106=CARTESIAN_POINT('',(0.E0,0.E0,-2.55E1));
#107=DIRECTION('',(0.E0,-1.E0,0.E0));
#108=DIRECTION('',(-1.E0,0.E0,0.E0));
#109=AXIS2_PLACEMENT_3D('',#106,#107,#108);
#111=CARTESIAN_POINT('',(0.E0,0.E0,-2.55E1));
#112=DIRECTION('',(0.E0,0.E0,-1.E0));
#113=DIRECTION('',(1.E0,0.E0,0.E0));
#114=AXIS2_PLACEMENT_3D('',#111,#112,#113);
#116=CARTESIAN_POINT('',(1.9E0,0.E0,-3.E0));
#117=CARTESIAN_POINT('',(1.9E0,0.E0,-1.5E1));
#118=VERTEX_POINT('',#116);
#119=VERTEX_POINT('',#117);
#120=CARTESIAN_POINT('',(1.5E0,0.E0,-1.5E1));
#121=CARTESIAN_POINT('',(1.5E0,0.E0,-2.55E1));
#122=VERTEX_POINT('',#120);
#123=VERTEX_POINT('',#121);
#124=CARTESIAN_POINT('',(0.E0,0.E0,-2.7E1));
#125=VERTEX_POINT('',#124);
#126=CARTESIAN_POINT('',(-1.9E0,0.E0,-3.E0));
#127=CARTESIAN_POINT('',(-1.9E0,0.E0,-1.5E1));
#128=VERTEX_POINT('',#126);
#129=VERTEX_POINT('',#127);
#130=CARTESIAN_POINT('',(-1.5E0,0.E0,-1.5E1));
#131=CARTESIAN_POINT('',(-1.5E0,0.E0,-2.55E1));
#132=VERTEX_POINT('',#130);
#133=VERTEX_POINT('',#131);
#134=CARTESIAN_POINT('',(2.165E0,0.E0,-3.E0));
#135=CARTESIAN_POINT('',(-2.165E0,0.E0,-3.E0));
#136=VERTEX_POINT('',#134);
#137=VERTEX_POINT('',#135);
#138=CARTESIAN_POINT('',(2.165E0,0.E0,-8.E-1));
#139=CARTESIAN_POINT('',(-2.165E0,0.E0,-8.E-1));
#140=VERTEX_POINT('',#138);
#141=VERTEX_POINT('',#139);
#142=CARTESIAN_POINT('',(1.365E0,0.E0,0.E0));
#143=CARTESIAN_POINT('',(-1.365E0,0.E0,0.E0));
#144=VERTEX_POINT('',#142);
#145=VERTEX_POINT('',#143);
#146=CARTESIAN_POINT('',(0.E0,0.E0,0.E0));
#147=DIRECTION('',(0.E0,0.E0,-1.E0));
#148=DIRECTION('',(1.E0,0.E0,0.E0));
#149=AXIS2_PLACEMENT_3D('',#146,#147,#148);
#150=PLANE('',#149);
#152=ORIENTED_EDGE('',*,*,#151,.T.);
#154=ORIENTED_EDGE('',*,*,#153,.T.);
#155=EDGE_LOOP('',(#152,#154));
#156=FACE_OUTER_BOUND('',#155,.F.);
#157=ADVANCED_FACE('',(#156),#150,.F.);
#158=CARTESIAN_POINT('',(0.E0,0.E0,-8.E-1));
#159=DIRECTION('',(0.E0,0.E0,-1.E0));
#160=DIRECTION('',(9.997542689365E-1,2.216758316351E-2,0.E0));
#161=AXIS2_PLACEMENT_3D('',#158,#159,#160);
#162=TOROIDAL_SURFACE('',#161,1.365E0,8.E-1);
#164=ORIENTED_EDGE('',*,*,#163,.T.);
#166=ORIENTED_EDGE('',*,*,#165,.T.);
#167=ORIENTED_EDGE('',*,*,#151,.F.);
#169=ORIENTED_EDGE('',*,*,#168,.F.);
#170=EDGE_LOOP('',(#164,#166,#167,#169));
#171=FACE_OUTER_BOUND('',#170,.F.);
#172=ADVANCED_FACE('',(#171),#162,.T.);
#173=CARTESIAN_POINT('',(0.E0,0.E0,1.35E0));
#174=DIRECTION('',(0.E0,0.E0,-1.E0));
#175=DIRECTION('',(1.E0,0.E0,0.E0));
#176=AXIS2_PLACEMENT_3D('',#173,#174,#175);
#177=CYLINDRICAL_SURFACE('',#176,2.165E0);
#178=ORIENTED_EDGE('',*,*,#163,.F.);
#180=ORIENTED_EDGE('',*,*,#179,.T.);
#182=ORIENTED_EDGE('',*,*,#181,.T.);
#184=ORIENTED_EDGE('',*,*,#183,.F.);
#185=EDGE_LOOP('',(#178,#180,#182,#184));
#186=FACE_OUTER_BOUND('',#185,.F.);
#187=ADVANCED_FACE('',(#186),#177,.T.);
#188=CARTESIAN_POINT('',(0.E0,0.E0,1.35E0));
#189=DIRECTION('',(0.E0,0.E0,-1.E0));
#190=DIRECTION('',(1.E0,0.E0,0.E0));
#191=AXIS2_PLACEMENT_3D('',#188,#189,#190);
#192=CYLINDRICAL_SURFACE('',#191,2.165E0);
#194=ORIENTED_EDGE('',*,*,#193,.F.);
#195=ORIENTED_EDGE('',*,*,#183,.T.);
#197=ORIENTED_EDGE('',*,*,#196,.F.);
#198=ORIENTED_EDGE('',*,*,#179,.F.);
#199=EDGE_LOOP('',(#194,#195,#197,#198));
#200=FACE_OUTER_BOUND('',#199,.F.);
#201=ADVANCED_FACE('',(#200),#192,.T.);
#202=CARTESIAN_POINT('',(0.E0,0.E0,-8.E-1));
#203=DIRECTION('',(0.E0,0.E0,-1.E0));
#204=DIRECTION('',(-9.997542689365E-1,-2.216758316351E-2,0.E0));
#205=AXIS2_PLACEMENT_3D('',#202,#203,#204);
#206=TOROIDAL_SURFACE('',#205,1.365E0,8.E-1);
#207=ORIENTED_EDGE('',*,*,#193,.T.);
#208=ORIENTED_EDGE('',*,*,#168,.T.);
#209=ORIENTED_EDGE('',*,*,#153,.F.);
#210=ORIENTED_EDGE('',*,*,#165,.F.);
#211=EDGE_LOOP('',(#207,#208,#209,#210));
#212=FACE_OUTER_BOUND('',#211,.F.);
#213=ADVANCED_FACE('',(#212),#206,.T.);
#214=CARTESIAN_POINT('',(0.E0,0.E0,-3.E0));
#215=DIRECTION('',(0.E0,0.E0,-1.E0));
#216=DIRECTION('',(1.E0,0.E0,0.E0));
#217=AXIS2_PLACEMENT_3D('',#214,#215,#216);
#218=PLANE('',#217);
#219=ORIENTED_EDGE('',*,*,#196,.T.);
#220=ORIENTED_EDGE('',*,*,#181,.F.);
#221=EDGE_LOOP('',(#219,#220));
#222=FACE_OUTER_BOUND('',#221,.F.);
#224=ORIENTED_EDGE('',*,*,#223,.T.);
#226=ORIENTED_EDGE('',*,*,#225,.F.);
#227=EDGE_LOOP('',(#224,#226));
#228=FACE_BOUND('',#227,.F.);
#229=ADVANCED_FACE('',(#222,#228),#218,.T.);
#230=CARTESIAN_POINT('',(0.E0,0.E0,1.35E0));
#231=DIRECTION('',(0.E0,0.E0,-1.E0));
#232=DIRECTION('',(1.E0,0.E0,0.E0));
#233=AXIS2_PLACEMENT_3D('',#230,#231,#232);
#234=CYLINDRICAL_SURFACE('',#233,1.9E0);
#236=ORIENTED_EDGE('',*,*,#235,.T.);
#238=ORIENTED_EDGE('',*,*,#237,.T.);
#240=ORIENTED_EDGE('',*,*,#239,.F.);
#241=ORIENTED_EDGE('',*,*,#223,.F.);
#242=EDGE_LOOP('',(#236,#238,#240,#241));
#243=FACE_OUTER_BOUND('',#242,.F.);
#244=ADVANCED_FACE('',(#243),#234,.T.);
#245=CARTESIAN_POINT('',(0.E0,0.E0,1.35E0));
#246=DIRECTION('',(0.E0,0.E0,-1.E0));
#247=DIRECTION('',(1.E0,0.E0,0.E0));
#248=AXIS2_PLACEMENT_3D('',#245,#246,#247);
#249=CYLINDRICAL_SURFACE('',#248,1.9E0);
#250=ORIENTED_EDGE('',*,*,#235,.F.);
#251=ORIENTED_EDGE('',*,*,#225,.T.);
#252=ORIENTED_EDGE('',*,*,#239,.T.);
#254=ORIENTED_EDGE('',*,*,#253,.F.);
#255=EDGE_LOOP('',(#250,#251,#252,#254));
#256=FACE_OUTER_BOUND('',#255,.F.);
#257=ADVANCED_FACE('',(#256),#249,.T.);
#258=CARTESIAN_POINT('',(0.E0,0.E0,-1.5E1));
#259=DIRECTION('',(0.E0,0.E0,-1.E0));
#260=DIRECTION('',(1.E0,0.E0,0.E0));
#261=AXIS2_PLACEMENT_3D('',#258,#259,#260);
#262=PLANE('',#261);
#263=ORIENTED_EDGE('',*,*,#253,.T.);
#264=ORIENTED_EDGE('',*,*,#237,.F.);
#265=EDGE_LOOP('',(#263,#264));
#266=FACE_OUTER_BOUND('',#265,.F.);
#268=ORIENTED_EDGE('',*,*,#267,.T.);
#270=ORIENTED_EDGE('',*,*,#269,.F.);
#271=EDGE_LOOP('',(#268,#270));
#272=FACE_BOUND('',#271,.F.);
#273=ADVANCED_FACE('',(#266,#272),#262,.T.);
#274=CARTESIAN_POINT('',(0.E0,0.E0,1.35E0));
#275=DIRECTION('',(0.E0,0.E0,-1.E0));
#276=DIRECTION('',(1.E0,0.E0,0.E0));
#277=AXIS2_PLACEMENT_3D('',#274,#275,#276);
#278=CYLINDRICAL_SURFACE('',#277,1.5E0);
#280=ORIENTED_EDGE('',*,*,#279,.T.);
#282=ORIENTED_EDGE('',*,*,#281,.T.);
#284=ORIENTED_EDGE('',*,*,#283,.F.);
#285=ORIENTED_EDGE('',*,*,#267,.F.);
#286=EDGE_LOOP('',(#280,#282,#284,#285));
#287=FACE_OUTER_BOUND('',#286,.F.);
#288=ADVANCED_FACE('',(#287),#278,.T.);
#289=CARTESIAN_POINT('',(0.E0,0.E0,1.35E0));
#290=DIRECTION('',(0.E0,0.E0,-1.E0));
#291=DIRECTION('',(1.E0,0.E0,0.E0));
#292=AXIS2_PLACEMENT_3D('',#289,#290,#291);
#293=CYLINDRICAL_SURFACE('',#292,1.5E0);
#294=ORIENTED_EDGE('',*,*,#279,.F.);
#295=ORIENTED_EDGE('',*,*,#269,.T.);
#296=ORIENTED_EDGE('',*,*,#283,.T.);
#298=ORIENTED_EDGE('',*,*,#297,.F.);
#299=EDGE_LOOP('',(#294,#295,#296,#298));
#300=FACE_OUTER_BOUND('',#299,.F.);
#301=ADVANCED_FACE('',(#300),#293,.T.);
#302=CARTESIAN_POINT('',(0.E0,0.E0,-2.55E1));
#303=DIRECTION('',(0.E0,0.E0,-1.E0));
#304=DIRECTION('',(1.E0,0.E0,0.E0));
#305=AXIS2_PLACEMENT_3D('',#302,#303,#304);
#306=SPHERICAL_SURFACE('',#305,1.5E0);
#308=ORIENTED_EDGE('',*,*,#307,.F.);
#309=ORIENTED_EDGE('',*,*,#297,.T.);
#311=ORIENTED_EDGE('',*,*,#310,.T.);
#312=EDGE_LOOP('',(#308,#309,#311));
#313=FACE_OUTER_BOUND('',#312,.F.);
#314=ADVANCED_FACE('',(#313),#306,.T.);
#315=CARTESIAN_POINT('',(0.E0,0.E0,-2.55E1));
#316=DIRECTION('',(0.E0,0.E0,-1.E0));
#317=DIRECTION('',(1.E0,0.E0,0.E0));
#318=AXIS2_PLACEMENT_3D('',#315,#316,#317);
#319=SPHERICAL_SURFACE('',#318,1.5E0);
#320=ORIENTED_EDGE('',*,*,#307,.T.);
#321=ORIENTED_EDGE('',*,*,#310,.F.);
#322=ORIENTED_EDGE('',*,*,#281,.F.);
#323=EDGE_LOOP('',(#320,#321,#322));
#324=FACE_OUTER_BOUND('',#323,.F.);
#325=ADVANCED_FACE('',(#324),#319,.T.);
#326=CLOSED_SHELL('',(#157,#172,#187,#201,#213,#229,#244,#257,#273,#288,#301,
#314,#325));
#327=MANIFOLD_SOLID_BREP('',#326);
#329=DIMENSIONAL_EXPONENTS(0.E0,0.E0,0.E0,0.E0,0.E0,0.E0,0.E0);
#331=PLANE_ANGLE_MEASURE_WITH_UNIT(PLANE_ANGLE_MEASURE(1.745329251994E-2),#330);
#332=(CONVERSION_BASED_UNIT('DEGREE',#331)NAMED_UNIT(*)PLANE_ANGLE_UNIT());
#334=UNCERTAINTY_MEASURE_WITH_UNIT(LENGTH_MEASURE(2.977761381039E-3),#328,
'closure',
'Maximum model space distance between geometric entities at asserted connectivities');
#335=(GEOMETRIC_REPRESENTATION_CONTEXT(3)GLOBAL_UNCERTAINTY_ASSIGNED_CONTEXT((
#334))GLOBAL_UNIT_ASSIGNED_CONTEXT((#328,#332,#333))REPRESENTATION_CONTEXT
('ID1','3'));
#337=APPLICATION_CONTEXT(
'CONFIGURATION CONTROLLED 3D DESIGNS OF MECHANICAL PARTS AND ASSEMBLIES');
#338=APPLICATION_PROTOCOL_DEFINITION('international standard',
'config_control_design',1994,#337);
#339=DESIGN_CONTEXT('',#337,'design');
#340=MECHANICAL_CONTEXT('',#337,'mechanical');
#341=PRODUCT('A114017-SR','A114017-SR','NOT SPECIFIED',(#340));
#342=PRODUCT_DEFINITION_FORMATION_WITH_SPECIFIED_SOURCE('1','LAST_VERSION',#341,
.MADE.);
#346=PRODUCT_CATEGORY('part','');
#347=PRODUCT_RELATED_PRODUCT_CATEGORY('detail','',(#341));
#348=PRODUCT_CATEGORY_RELATIONSHIP('','',#346,#347);
#349=SECURITY_CLASSIFICATION_LEVEL('unclassified');
#350=SECURITY_CLASSIFICATION('','',#349);
#351=CC_DESIGN_SECURITY_CLASSIFICATION(#350,(#342));
#352=APPROVAL_STATUS('approved');
#353=APPROVAL(#352,'');
#354=CC_DESIGN_APPROVAL(#353,(#350,#342,#343));
#355=CALENDAR_DATE(118,23,4);
#356=COORDINATED_UNIVERSAL_TIME_OFFSET(8,0,.AHEAD.);
#357=LOCAL_TIME(8,56,6.E0,#356);
#358=DATE_AND_TIME(#355,#357);
#359=APPROVAL_DATE_TIME(#358,#353);
#360=DATE_TIME_ROLE('creation_date');
#361=CC_DESIGN_DATE_AND_TIME_ASSIGNMENT(#358,#360,(#343));
#362=DATE_TIME_ROLE('classification_date');
#363=CC_DESIGN_DATE_AND_TIME_ASSIGNMENT(#358,#362,(#350));
#364=PERSON('UNSPECIFIED','UNSPECIFIED',$,$,$,$);
#365=ORGANIZATION('UNSPECIFIED','UNSPECIFIED','UNSPECIFIED');
#366=PERSON_AND_ORGANIZATION(#364,#365);
#367=APPROVAL_ROLE('approver');
#368=APPROVAL_PERSON_ORGANIZATION(#366,#353,#367);
#369=PERSON_AND_ORGANIZATION_ROLE('creator');
#370=CC_DESIGN_PERSON_AND_ORGANIZATION_ASSIGNMENT(#366,#369,(#342,#343));
#371=PERSON_AND_ORGANIZATION_ROLE('design_supplier');
#372=CC_DESIGN_PERSON_AND_ORGANIZATION_ASSIGNMENT(#366,#371,(#342));
#373=PERSON_AND_ORGANIZATION_ROLE('classification_officer');
#374=CC_DESIGN_PERSON_AND_ORGANIZATION_ASSIGNMENT(#366,#373,(#350));
#375=PERSON_AND_ORGANIZATION_ROLE('design_owner');
#376=CC_DESIGN_PERSON_AND_ORGANIZATION_ASSIGNMENT(#366,#375,(#341));
#6=CIRCLE('',#5,1.365E0);
#11=CIRCLE('',#10,1.365E0);
#16=CIRCLE('',#15,8.E-1);
#21=CIRCLE('',#20,2.165E0);
#26=CIRCLE('',#25,2.165E0);
#39=CIRCLE('',#38,8.E-1);
#44=CIRCLE('',#43,2.165E0);
#49=CIRCLE('',#48,2.165E0);
#54=CIRCLE('',#53,1.9E0);
#63=CIRCLE('',#62,1.9E0);
#72=CIRCLE('',#71,1.9E0);
#77=CIRCLE('',#76,1.9E0);
#82=CIRCLE('',#81,1.5E0);
#91=CIRCLE('',#90,1.5E0);
#100=CIRCLE('',#99,1.5E0);
#105=CIRCLE('',#104,1.5E0);
#110=CIRCLE('',#109,1.5E0);
#115=CIRCLE('',#114,1.5E0);
#151=EDGE_CURVE('',#144,#145,#6,.T.);
#153=EDGE_CURVE('',#145,#144,#11,.T.);
#163=EDGE_CURVE('',#140,#141,#21,.T.);
#165=EDGE_CURVE('',#141,#145,#39,.T.);
#168=EDGE_CURVE('',#140,#144,#16,.T.);
#179=EDGE_CURVE('',#140,#136,#34,.T.);
#181=EDGE_CURVE('',#136,#137,#49,.T.);
#183=EDGE_CURVE('',#141,#137,#30,.T.);
#193=EDGE_CURVE('',#141,#140,#26,.T.);
#196=EDGE_CURVE('',#136,#137,#44,.T.);
#223=EDGE_CURVE('',#118,#128,#54,.T.);
#225=EDGE_CURVE('',#118,#128,#63,.T.);
#235=EDGE_CURVE('',#118,#119,#58,.T.);
#237=EDGE_CURVE('',#119,#129,#77,.T.);
#239=EDGE_CURVE('',#128,#129,#67,.T.);
#253=EDGE_CURVE('',#119,#129,#72,.T.);
#267=EDGE_CURVE('',#122,#132,#82,.T.);
#269=EDGE_CURVE('',#122,#132,#91,.T.);
#279=EDGE_CURVE('',#122,#123,#86,.T.);
#281=EDGE_CURVE('',#123,#133,#115,.T.);
#283=EDGE_CURVE('',#132,#133,#95,.T.);
#297=EDGE_CURVE('',#123,#133,#105,.T.);
#307=EDGE_CURVE('',#123,#125,#100,.T.);
#310=EDGE_CURVE('',#133,#125,#110,.T.);
#328=(LENGTH_UNIT()NAMED_UNIT(*)SI_UNIT(.MILLI.,.METRE.));
#330=(NAMED_UNIT(*)PLANE_ANGLE_UNIT()SI_UNIT($,.RADIAN.));
#333=(NAMED_UNIT(*)SI_UNIT($,.STERADIAN.)SOLID_ANGLE_UNIT());
#336=ADVANCED_BREP_SHAPE_REPRESENTATION('',(#327),#335);
#343=PRODUCT_DEFINITION('design','',#342,#339);
#344=PRODUCT_DEFINITION_SHAPE('','SHAPE FOR A114017-SR.',#343);
#345=SHAPE_DEFINITION_REPRESENTATION(#344,#336);
ENDSEC;
END-ISO-10303-21;
