ISO-10303-21;
HEADER;
FILE_DESCRIPTION((''),'2;1');
FILE_NAME('AT13-204-2005','2012-05-24T',('Orion.Li'),(''),
'PRO/ENGINEER BY PARAMETRIC TECHNOLOGY CORPORATION, 2009460',
'PRO/ENGINEER BY PARAMETRIC TECHNOLOGY CORPORATION, 2009460','');
FILE_SCHEMA(('CONFIG_CONTROL_DESIGN'));
ENDSEC;
DATA;
#1=CARTESIAN_POINT('',(0.E0,0.E0,2.961951184433E-6));
#2=DIRECTION('',(0.E0,0.E0,-1.E0));
#3=DIRECTION('',(1.E0,0.E0,0.E0));
#4=AXIS2_PLACEMENT_3D('',#1,#2,#3);
#6=CARTESIAN_POINT('',(0.E0,0.E0,2.961951184322E-6));
#7=DIRECTION('',(0.E0,0.E0,-1.E0));
#8=DIRECTION('',(-1.E0,0.E0,0.E0));
#9=AXIS2_PLACEMENT_3D('',#6,#7,#8);
#11=DIRECTION('',(7.071061995530E-1,1.907458365029E-11,7.071073628196E-1));
#12=VECTOR('',#11,5.656854249278E-1);
#13=CARTESIAN_POINT('',(7.499978064213E-1,7.193507530579E-11,
2.193374428490E-6));
#14=LINE('',#13,#12);
#15=DIRECTION('',(-7.071061995530E-1,-1.907477115410E-11,7.071073628196E-1));
#16=VECTOR('',#15,5.656854249278E-1);
#17=CARTESIAN_POINT('',(-7.499978064213E-1,-7.193523897869E-11,
2.193374428305E-6));
#18=LINE('',#17,#16);
#19=CARTESIAN_POINT('',(0.E0,0.E0,4.000010234055E-1));
#20=DIRECTION('',(0.E0,0.E0,-1.E0));
#21=DIRECTION('',(-1.E0,0.E0,0.E0));
#22=AXIS2_PLACEMENT_3D('',#19,#20,#21);
#24=DIRECTION('',(9.702376777804E-7,-3.181750398153E-11,9.999999999995E-1));
#25=VECTOR('',#24,2.599997477621E0);
#26=CARTESIAN_POINT('',(1.149997477384E0,8.272528926333E-11,4.000025223806E-1));
#27=LINE('',#26,#25);
#28=CARTESIAN_POINT('',(0.E0,0.E0,4.000010234055E-1));
#29=DIRECTION('',(0.E0,0.E0,-1.E0));
#30=DIRECTION('',(1.E0,0.E0,0.E0));
#31=AXIS2_PLACEMENT_3D('',#28,#29,#30);
#33=DIRECTION('',(-9.702376776950E-7,3.181760772819E-11,9.999999999995E-1));
#34=VECTOR('',#33,2.599997477621E0);
#35=CARTESIAN_POINT('',(-1.149997477384E0,-8.272555900439E-11,
4.000025223806E-1));
#36=LINE('',#35,#34);
#37=CARTESIAN_POINT('',(0.E0,0.E0,3.E0));
#38=DIRECTION('',(0.E0,0.E0,1.E0));
#39=DIRECTION('',(1.E0,0.E0,0.E0));
#40=AXIS2_PLACEMENT_3D('',#37,#38,#39);
#42=CARTESIAN_POINT('',(0.E0,0.E0,3.E0));
#43=DIRECTION('',(0.E0,0.E0,1.E0));
#44=DIRECTION('',(-1.E0,0.E0,0.E0));
#45=AXIS2_PLACEMENT_3D('',#42,#43,#44);
#47=CARTESIAN_POINT('',(0.E0,0.E0,3.E0));
#48=DIRECTION('',(0.E0,0.E0,1.E0));
#49=DIRECTION('',(-1.E0,0.E0,0.E0));
#50=AXIS2_PLACEMENT_3D('',#47,#48,#49);
#52=CARTESIAN_POINT('',(0.E0,0.E0,3.E0));
#53=DIRECTION('',(0.E0,0.E0,1.E0));
#54=DIRECTION('',(1.E0,0.E0,0.E0));
#55=AXIS2_PLACEMENT_3D('',#52,#53,#54);
#57=CARTESIAN_POINT('',(-9.E-1,1.541493668822E-11,3.1E0));
#58=DIRECTION('',(-1.712770897333E-11,-1.E0,0.E0));
#59=DIRECTION('',(1.608335686853E-10,0.E0,-1.E0));
#60=AXIS2_PLACEMENT_3D('',#57,#58,#59);
#62=CARTESIAN_POINT('',(9.E-1,-1.541489158541E-11,3.1E0));
#63=DIRECTION('',(1.712765693163E-11,1.E0,0.E0));
#64=DIRECTION('',(-1.608324584623E-10,0.E0,-1.E0));
#65=AXIS2_PLACEMENT_3D('',#62,#63,#64);
#67=CARTESIAN_POINT('',(0.E0,0.E0,3.1E0));
#68=DIRECTION('',(0.E0,0.E0,1.E0));
#69=DIRECTION('',(1.E0,0.E0,0.E0));
#70=AXIS2_PLACEMENT_3D('',#67,#68,#69);
#72=DIRECTION('',(-2.551491597556E-7,-3.576363471682E-11,1.E0));
#73=VECTOR('',#72,1.129999711726E1);
#74=CARTESIAN_POINT('',(8.E-1,7.298831952179E-11,3.1E0));
#75=LINE('',#74,#73);
#76=CARTESIAN_POINT('',(0.E0,0.E0,1.439999863952E1));
#77=DIRECTION('',(0.E0,0.E0,1.E0));
#78=DIRECTION('',(1.E0,0.E0,0.E0));
#79=AXIS2_PLACEMENT_3D('',#76,#77,#78);
#81=CARTESIAN_POINT('',(0.E0,0.E0,3.1E0));
#82=DIRECTION('',(0.E0,0.E0,1.E0));
#83=DIRECTION('',(-1.E0,0.E0,0.E0));
#84=AXIS2_PLACEMENT_3D('',#81,#82,#83);
#86=DIRECTION('',(2.551491595001E-7,3.576362396507E-11,1.E0));
#87=VECTOR('',#86,1.129999711726E1);
#88=CARTESIAN_POINT('',(-8.E-1,-7.298840570402E-11,3.1E0));
#89=LINE('',#88,#87);
#90=CARTESIAN_POINT('',(0.E0,0.E0,1.439999863952E1));
#91=DIRECTION('',(0.E0,0.E0,1.E0));
#92=DIRECTION('',(-1.E0,0.E0,0.E0));
#93=AXIS2_PLACEMENT_3D('',#90,#91,#92);
#95=DIRECTION('',(-7.071067811865E-1,0.E0,-7.071067811865E-1));
#96=VECTOR('',#95,2.828427124746E-1);
#97=CARTESIAN_POINT('',(-5.999971168152E-1,3.311404757966E-10,
1.459999711726E1));
#98=LINE('',#97,#96);
#99=CARTESIAN_POINT('',(0.E0,0.E0,1.459999617718E1));
#100=DIRECTION('',(0.E0,0.E0,1.E0));
#101=DIRECTION('',(-1.E0,0.E0,0.E0));
#102=AXIS2_PLACEMENT_3D('',#99,#100,#101);
#104=CARTESIAN_POINT('',(0.E0,0.E0,1.459999617718E1));
#105=DIRECTION('',(0.E0,0.E0,1.E0));
#106=DIRECTION('',(1.E0,0.E0,0.E0));
#107=AXIS2_PLACEMENT_3D('',#104,#105,#106);
#109=DIRECTION('',(7.071067811866E-1,0.E0,-7.071067811865E-1));
#110=VECTOR('',#109,2.828427124746E-1);
#111=CARTESIAN_POINT('',(5.999971168152E-1,-3.311405623251E-10,
1.459999711726E1));
#112=LINE('',#111,#110);
#113=CARTESIAN_POINT('',(1.15E0,0.E0,3.E0));
#114=CARTESIAN_POINT('',(-1.15E0,0.E0,3.E0));
#115=VERTEX_POINT('',#113);
#116=VERTEX_POINT('',#114);
#117=CARTESIAN_POINT('',(7.499963815244E-1,0.E0,2.961951184433E-6));
#118=CARTESIAN_POINT('',(-7.499963815244E-1,0.E0,2.961951184433E-6));
#119=VERTEX_POINT('',#117);
#120=VERTEX_POINT('',#118);
#121=CARTESIAN_POINT('',(1.15E0,0.E0,4.000010234055E-1));
#122=CARTESIAN_POINT('',(-1.15E0,0.E0,4.000010234055E-1));
#123=VERTEX_POINT('',#121);
#124=VERTEX_POINT('',#122);
#125=CARTESIAN_POINT('',(-5.999951739373E-1,0.E0,1.459999617718E1));
#126=CARTESIAN_POINT('',(5.999951739373E-1,0.E0,1.459999617718E1));
#127=VERTEX_POINT('',#125);
#128=VERTEX_POINT('',#126);
#129=CARTESIAN_POINT('',(-8.E-1,0.E0,1.439999863952E1));
#130=CARTESIAN_POINT('',(8.E-1,0.E0,1.439999863952E1));
#131=VERTEX_POINT('',#129);
#132=VERTEX_POINT('',#130);
#133=CARTESIAN_POINT('',(-8.999997149818E-1,0.E0,3.E0));
#134=CARTESIAN_POINT('',(8.999997149818E-1,0.E0,3.E0));
#135=VERTEX_POINT('',#133);
#136=VERTEX_POINT('',#134);
#137=CARTESIAN_POINT('',(-8.E-1,0.E0,3.1E0));
#138=CARTESIAN_POINT('',(8.E-1,0.E0,3.1E0));
#139=VERTEX_POINT('',#137);
#140=VERTEX_POINT('',#138);
#141=CARTESIAN_POINT('',(0.E0,0.E0,0.E0));
#142=DIRECTION('',(0.E0,0.E0,1.E0));
#143=DIRECTION('',(1.E0,0.E0,0.E0));
#144=AXIS2_PLACEMENT_3D('',#141,#142,#143);
#145=PLANE('',#144);
#147=ORIENTED_EDGE('',*,*,#146,.F.);
#149=ORIENTED_EDGE('',*,*,#148,.F.);
#150=EDGE_LOOP('',(#147,#149));
#151=FACE_OUTER_BOUND('',#150,.F.);
#152=ADVANCED_FACE('',(#151),#145,.F.);
#153=CARTESIAN_POINT('',(0.E0,0.E0,2.000049151506E-1));
#154=DIRECTION('',(0.E0,0.E0,1.E0));
#155=DIRECTION('',(0.E0,-1.E0,0.E0));
#156=AXIS2_PLACEMENT_3D('',#153,#154,#155);
#157=CONICAL_SURFACE('',#156,9.499965799330E-1,4.499974864610E1);
#158=ORIENTED_EDGE('',*,*,#146,.T.);
#160=ORIENTED_EDGE('',*,*,#159,.T.);
#162=ORIENTED_EDGE('',*,*,#161,.F.);
#164=ORIENTED_EDGE('',*,*,#163,.F.);
#165=EDGE_LOOP('',(#158,#160,#162,#164));
#166=FACE_OUTER_BOUND('',#165,.F.);
#167=ADVANCED_FACE('',(#166),#157,.T.);
#168=CARTESIAN_POINT('',(0.E0,0.E0,2.000049151506E-1));
#169=DIRECTION('',(0.E0,0.E0,1.E0));
#170=DIRECTION('',(0.E0,-1.E0,0.E0));
#171=AXIS2_PLACEMENT_3D('',#168,#169,#170);
#172=CONICAL_SURFACE('',#171,9.499965799330E-1,4.499974864610E1);
#173=ORIENTED_EDGE('',*,*,#148,.T.);
#174=ORIENTED_EDGE('',*,*,#163,.T.);
#176=ORIENTED_EDGE('',*,*,#175,.F.);
#177=ORIENTED_EDGE('',*,*,#159,.F.);
#178=EDGE_LOOP('',(#173,#174,#176,#177));
#179=FACE_OUTER_BOUND('',#178,.F.);
#180=ADVANCED_FACE('',(#179),#172,.T.);
#181=CARTESIAN_POINT('',(0.E0,0.E0,0.E0));
#182=DIRECTION('',(0.E0,0.E0,1.E0));
#183=DIRECTION('',(1.E0,0.E0,0.E0));
#184=AXIS2_PLACEMENT_3D('',#181,#182,#183);
#185=CYLINDRICAL_SURFACE('',#184,1.15E0);
#186=ORIENTED_EDGE('',*,*,#175,.T.);
#188=ORIENTED_EDGE('',*,*,#187,.T.);
#190=ORIENTED_EDGE('',*,*,#189,.T.);
#192=ORIENTED_EDGE('',*,*,#191,.F.);
#193=EDGE_LOOP('',(#186,#188,#190,#192));
#194=FACE_OUTER_BOUND('',#193,.F.);
#195=ADVANCED_FACE('',(#194),#185,.T.);
#196=CARTESIAN_POINT('',(0.E0,0.E0,0.E0));
#197=DIRECTION('',(0.E0,0.E0,1.E0));
#198=DIRECTION('',(1.E0,0.E0,0.E0));
#199=AXIS2_PLACEMENT_3D('',#196,#197,#198);
#200=CYLINDRICAL_SURFACE('',#199,1.15E0);
#201=ORIENTED_EDGE('',*,*,#161,.T.);
#202=ORIENTED_EDGE('',*,*,#191,.T.);
#204=ORIENTED_EDGE('',*,*,#203,.T.);
#205=ORIENTED_EDGE('',*,*,#187,.F.);
#206=EDGE_LOOP('',(#201,#202,#204,#205));
#207=FACE_OUTER_BOUND('',#206,.F.);
#208=ADVANCED_FACE('',(#207),#200,.T.);
#209=CARTESIAN_POINT('',(0.E0,0.E0,3.E0));
#210=DIRECTION('',(0.E0,0.E0,1.E0));
#211=DIRECTION('',(1.E0,0.E0,0.E0));
#212=AXIS2_PLACEMENT_3D('',#209,#210,#211);
#213=PLANE('',#212);
#214=ORIENTED_EDGE('',*,*,#189,.F.);
#215=ORIENTED_EDGE('',*,*,#203,.F.);
#216=EDGE_LOOP('',(#214,#215));
#217=FACE_OUTER_BOUND('',#216,.F.);
#219=ORIENTED_EDGE('',*,*,#218,.T.);
#221=ORIENTED_EDGE('',*,*,#220,.T.);
#222=EDGE_LOOP('',(#219,#221));
#223=FACE_BOUND('',#222,.F.);
#224=ADVANCED_FACE('',(#217,#223),#213,.T.);
#225=CARTESIAN_POINT('',(0.E0,0.E0,3.1E0));
#226=DIRECTION('',(0.E0,0.E0,1.E0));
#227=DIRECTION('',(-9.995867613465E-1,2.874554819145E-2,0.E0));
#228=AXIS2_PLACEMENT_3D('',#225,#226,#227);
#229=TOROIDAL_SURFACE('',#228,9.E-1,1.E-1);
#230=ORIENTED_EDGE('',*,*,#218,.F.);
#232=ORIENTED_EDGE('',*,*,#231,.T.);
#234=ORIENTED_EDGE('',*,*,#233,.T.);
#236=ORIENTED_EDGE('',*,*,#235,.F.);
#237=EDGE_LOOP('',(#230,#232,#234,#236));
#238=FACE_OUTER_BOUND('',#237,.F.);
#239=ADVANCED_FACE('',(#238),#229,.F.);
#240=CARTESIAN_POINT('',(0.E0,0.E0,3.1E0));
#241=DIRECTION('',(0.E0,0.E0,1.E0));
#242=DIRECTION('',(9.995867613465E-1,-2.874554819145E-2,0.E0));
#243=AXIS2_PLACEMENT_3D('',#240,#241,#242);
#244=TOROIDAL_SURFACE('',#243,9.E-1,1.E-1);
#245=ORIENTED_EDGE('',*,*,#220,.F.);
#246=ORIENTED_EDGE('',*,*,#235,.T.);
#248=ORIENTED_EDGE('',*,*,#247,.T.);
#249=ORIENTED_EDGE('',*,*,#231,.F.);
#250=EDGE_LOOP('',(#245,#246,#248,#249));
#251=FACE_OUTER_BOUND('',#250,.F.);
#252=ADVANCED_FACE('',(#251),#244,.F.);
#253=CARTESIAN_POINT('',(0.E0,0.E0,3.E0));
#254=DIRECTION('',(0.E0,0.E0,1.E0));
#255=DIRECTION('',(1.E0,0.E0,0.E0));
#256=AXIS2_PLACEMENT_3D('',#253,#254,#255);
#257=CYLINDRICAL_SURFACE('',#256,8.E-1);
#258=ORIENTED_EDGE('',*,*,#247,.F.);
#260=ORIENTED_EDGE('',*,*,#259,.T.);
#262=ORIENTED_EDGE('',*,*,#261,.T.);
#264=ORIENTED_EDGE('',*,*,#263,.F.);
#265=EDGE_LOOP('',(#258,#260,#262,#264));
#266=FACE_OUTER_BOUND('',#265,.F.);
#267=ADVANCED_FACE('',(#266),#257,.T.);
#268=CARTESIAN_POINT('',(0.E0,0.E0,3.E0));
#269=DIRECTION('',(0.E0,0.E0,1.E0));
#270=DIRECTION('',(1.E0,0.E0,0.E0));
#271=AXIS2_PLACEMENT_3D('',#268,#269,#270);
#272=CYLINDRICAL_SURFACE('',#271,8.E-1);
#273=ORIENTED_EDGE('',*,*,#233,.F.);
#274=ORIENTED_EDGE('',*,*,#263,.T.);
#276=ORIENTED_EDGE('',*,*,#275,.T.);
#277=ORIENTED_EDGE('',*,*,#259,.F.);
#278=EDGE_LOOP('',(#273,#274,#276,#277));
#279=FACE_OUTER_BOUND('',#278,.F.);
#280=ADVANCED_FACE('',(#279),#272,.T.);
#281=CARTESIAN_POINT('',(0.E0,0.E0,1.449999431591E1));
#282=DIRECTION('',(0.E0,0.E0,-1.E0));
#283=DIRECTION('',(0.E0,-1.E0,0.E0));
#284=AXIS2_PLACEMENT_3D('',#281,#282,#283);
#285=CONICAL_SURFACE('',#284,6.999955937083E-1,4.499958704586E1);
#287=ORIENTED_EDGE('',*,*,#286,.T.);
#289=ORIENTED_EDGE('',*,*,#288,.T.);
#290=ORIENTED_EDGE('',*,*,#275,.F.);
#292=ORIENTED_EDGE('',*,*,#291,.F.);
#293=EDGE_LOOP('',(#287,#289,#290,#292));
#294=FACE_OUTER_BOUND('',#293,.F.);
#295=ADVANCED_FACE('',(#294),#285,.T.);
#296=CARTESIAN_POINT('',(0.E0,0.E0,1.46E1));
#297=DIRECTION('',(0.E0,0.E0,1.E0));
#298=DIRECTION('',(1.E0,0.E0,0.E0));
#299=AXIS2_PLACEMENT_3D('',#296,#297,#298);
#300=PLANE('',#299);
#301=ORIENTED_EDGE('',*,*,#286,.F.);
#303=ORIENTED_EDGE('',*,*,#302,.F.);
#304=EDGE_LOOP('',(#301,#303));
#305=FACE_OUTER_BOUND('',#304,.F.);
#306=ADVANCED_FACE('',(#305),#300,.T.);
#307=CARTESIAN_POINT('',(0.E0,0.E0,1.449999431591E1));
#308=DIRECTION('',(0.E0,0.E0,-1.E0));
#309=DIRECTION('',(0.E0,-1.E0,0.E0));
#310=AXIS2_PLACEMENT_3D('',#307,#308,#309);
#311=CONICAL_SURFACE('',#310,6.999955937083E-1,4.499958704586E1);
#312=ORIENTED_EDGE('',*,*,#302,.T.);
#313=ORIENTED_EDGE('',*,*,#291,.T.);
#314=ORIENTED_EDGE('',*,*,#261,.F.);
#315=ORIENTED_EDGE('',*,*,#288,.F.);
#316=EDGE_LOOP('',(#312,#313,#314,#315));
#317=FACE_OUTER_BOUND('',#316,.F.);
#318=ADVANCED_FACE('',(#317),#311,.T.);
#319=CLOSED_SHELL('',(#152,#167,#180,#195,#208,#224,#239,#252,#267,#280,#295,
#306,#318));
#320=MANIFOLD_SOLID_BREP('',#319);
#322=DIMENSIONAL_EXPONENTS(0.E0,0.E0,0.E0,0.E0,0.E0,0.E0,0.E0);
#324=PLANE_ANGLE_MEASURE_WITH_UNIT(PLANE_ANGLE_MEASURE(1.745329251994E-2),#323);
#325=(CONVERSION_BASED_UNIT('DEGREE',#324)NAMED_UNIT(#322)PLANE_ANGLE_UNIT());
#327=UNCERTAINTY_MEASURE_WITH_UNIT(LENGTH_MEASURE(1.495734271714E-3),#321,
'closure',
'Maximum model space distance between geometric entities at asserted connectivities');
#328=(GEOMETRIC_REPRESENTATION_CONTEXT(3)GLOBAL_UNCERTAINTY_ASSIGNED_CONTEXT((
#327))GLOBAL_UNIT_ASSIGNED_CONTEXT((#321,#325,#326))REPRESENTATION_CONTEXT
('ID1','3'));
#330=APPLICATION_CONTEXT(
'CONFIGURATION CONTROLLED 3D DESIGNS OF MECHANICAL PARTS AND ASSEMBLIES');
#331=APPLICATION_PROTOCOL_DEFINITION('international standard',
'config_control_design',1994,#330);
#332=DESIGN_CONTEXT('',#330,'design');
#333=MECHANICAL_CONTEXT('',#330,'mechanical');
#334=PRODUCT('AT13-204-2005','AT13-204-2005','NOT SPECIFIED',(#333));
#335=PRODUCT_DEFINITION_FORMATION_WITH_SPECIFIED_SOURCE('5','LAST_VERSION',#334,
.MADE.);
#339=PRODUCT_CATEGORY('part','');
#340=PRODUCT_RELATED_PRODUCT_CATEGORY('detail','',(#334));
#341=PRODUCT_CATEGORY_RELATIONSHIP('','',#339,#340);
#342=SECURITY_CLASSIFICATION_LEVEL('unclassified');
#343=SECURITY_CLASSIFICATION('','',#342);
#344=CC_DESIGN_SECURITY_CLASSIFICATION(#343,(#335));
#345=APPROVAL_STATUS('approved');
#346=APPROVAL(#345,'');
#347=CC_DESIGN_APPROVAL(#346,(#343,#335,#336));
#348=CALENDAR_DATE(112,24,5);
#349=COORDINATED_UNIVERSAL_TIME_OFFSET(8,0,.AHEAD.);
#350=LOCAL_TIME(11,1,8.E0,#349);
#351=DATE_AND_TIME(#348,#350);
#352=APPROVAL_DATE_TIME(#351,#346);
#353=DATE_TIME_ROLE('creation_date');
#354=CC_DESIGN_DATE_AND_TIME_ASSIGNMENT(#351,#353,(#336));
#355=DATE_TIME_ROLE('classification_date');
#356=CC_DESIGN_DATE_AND_TIME_ASSIGNMENT(#351,#355,(#343));
#357=PERSON('UNSPECIFIED','UNSPECIFIED',$,$,$,$);
#358=ORGANIZATION('UNSPECIFIED','UNSPECIFIED','UNSPECIFIED');
#359=PERSON_AND_ORGANIZATION(#357,#358);
#360=APPROVAL_ROLE('approver');
#361=APPROVAL_PERSON_ORGANIZATION(#359,#346,#360);
#362=PERSON_AND_ORGANIZATION_ROLE('creator');
#363=CC_DESIGN_PERSON_AND_ORGANIZATION_ASSIGNMENT(#359,#362,(#335,#336));
#364=PERSON_AND_ORGANIZATION_ROLE('design_supplier');
#365=CC_DESIGN_PERSON_AND_ORGANIZATION_ASSIGNMENT(#359,#364,(#335));
#366=PERSON_AND_ORGANIZATION_ROLE('classification_officer');
#367=CC_DESIGN_PERSON_AND_ORGANIZATION_ASSIGNMENT(#359,#366,(#343));
#368=PERSON_AND_ORGANIZATION_ROLE('design_owner');
#369=CC_DESIGN_PERSON_AND_ORGANIZATION_ASSIGNMENT(#359,#368,(#334));
#5=CIRCLE('',#4,7.499963815244E-1);
#10=CIRCLE('',#9,7.499963815244E-1);
#23=CIRCLE('',#22,1.15E0);
#32=CIRCLE('',#31,1.15E0);
#41=CIRCLE('',#40,1.15E0);
#46=CIRCLE('',#45,1.15E0);
#51=CIRCLE('',#50,8.999997149818E-1);
#56=CIRCLE('',#55,8.999997149818E-1);
#61=CIRCLE('',#60,1.E-1);
#66=CIRCLE('',#65,1.E-1);
#71=CIRCLE('',#70,8.E-1);
#80=CIRCLE('',#79,8.E-1);
#85=CIRCLE('',#84,8.E-1);
#94=CIRCLE('',#93,8.E-1);
#103=CIRCLE('',#102,5.999951739373E-1);
#108=CIRCLE('',#107,5.999951739373E-1);
#146=EDGE_CURVE('',#119,#120,#5,.T.);
#148=EDGE_CURVE('',#120,#119,#10,.T.);
#159=EDGE_CURVE('',#120,#124,#18,.T.);
#161=EDGE_CURVE('',#123,#124,#32,.T.);
#163=EDGE_CURVE('',#119,#123,#14,.T.);
#175=EDGE_CURVE('',#124,#123,#23,.T.);
#187=EDGE_CURVE('',#123,#115,#27,.T.);
#189=EDGE_CURVE('',#115,#116,#41,.T.);
#191=EDGE_CURVE('',#124,#116,#36,.T.);
#203=EDGE_CURVE('',#116,#115,#46,.T.);
#218=EDGE_CURVE('',#135,#136,#51,.T.);
#220=EDGE_CURVE('',#136,#135,#56,.T.);
#231=EDGE_CURVE('',#135,#139,#61,.T.);
#233=EDGE_CURVE('',#139,#140,#85,.T.);
#235=EDGE_CURVE('',#136,#140,#66,.T.);
#247=EDGE_CURVE('',#140,#139,#71,.T.);
#259=EDGE_CURVE('',#140,#132,#75,.T.);
#261=EDGE_CURVE('',#132,#131,#80,.T.);
#263=EDGE_CURVE('',#139,#131,#89,.T.);
#275=EDGE_CURVE('',#131,#132,#94,.T.);
#286=EDGE_CURVE('',#127,#128,#103,.T.);
#288=EDGE_CURVE('',#128,#132,#112,.T.);
#291=EDGE_CURVE('',#127,#131,#98,.T.);
#302=EDGE_CURVE('',#128,#127,#108,.T.);
#321=(LENGTH_UNIT()NAMED_UNIT(*)SI_UNIT(.MILLI.,.METRE.));
#323=(NAMED_UNIT(*)PLANE_ANGLE_UNIT()SI_UNIT($,.RADIAN.));
#326=(NAMED_UNIT(*)SI_UNIT($,.STERADIAN.)SOLID_ANGLE_UNIT());
#329=ADVANCED_BREP_SHAPE_REPRESENTATION('',(#320),#328);
#336=PRODUCT_DEFINITION('design','',#335,#332);
#337=PRODUCT_DEFINITION_SHAPE('','SHAPE FOR AT13-204-2005.',#336);
#338=SHAPE_DEFINITION_REPRESENTATION(#337,#329);
ENDSEC;
END-ISO-10303-21;
