ISO-10303-21;
HEADER;
FILE_DESCRIPTION((''),'2;1');
FILE_NAME('RTFD12B','2015-07-08T',('ben.guo'),(''),
'PRO/ENGINEER BY PARAMETRIC TECHNOLOGY CORPORATION, 2013230',
'PRO/ENGINEER BY PARAMETRIC TECHNOLOGY CORPORATION, 2013230','');
FILE_SCHEMA(('CONFIG_CONTROL_DESIGN'));
ENDSEC;
DATA;
#1=CARTESIAN_POINT('',(1.11E1,-1.11E1,0.E0));
#2=DIRECTION('',(0.E0,0.E0,1.E0));
#3=DIRECTION('',(0.E0,-1.E0,0.E0));
#4=AXIS2_PLACEMENT_3D('',#1,#2,#3);
#6=CARTESIAN_POINT('',(1.11E1,1.11E1,0.E0));
#7=DIRECTION('',(0.E0,0.E0,1.E0));
#8=DIRECTION('',(1.E0,0.E0,0.E0));
#9=AXIS2_PLACEMENT_3D('',#6,#7,#8);
#11=CARTESIAN_POINT('',(-1.11E1,1.11E1,0.E0));
#12=DIRECTION('',(0.E0,0.E0,1.E0));
#13=DIRECTION('',(0.E0,1.E0,0.E0));
#14=AXIS2_PLACEMENT_3D('',#11,#12,#13);
#16=CARTESIAN_POINT('',(-1.11E1,-1.11E1,0.E0));
#17=DIRECTION('',(0.E0,0.E0,1.E0));
#18=DIRECTION('',(-1.E0,0.E0,0.E0));
#19=AXIS2_PLACEMENT_3D('',#16,#17,#18);
#21=CARTESIAN_POINT('',(0.E0,0.E0,0.E0));
#22=DIRECTION('',(0.E0,0.E0,-1.E0));
#23=DIRECTION('',(1.E0,0.E0,0.E0));
#24=AXIS2_PLACEMENT_3D('',#21,#22,#23);
#26=CARTESIAN_POINT('',(0.E0,0.E0,0.E0));
#27=DIRECTION('',(0.E0,0.E0,-1.E0));
#28=DIRECTION('',(-1.E0,0.E0,0.E0));
#29=AXIS2_PLACEMENT_3D('',#26,#27,#28);
#31=CARTESIAN_POINT('',(1.03E1,1.03E1,0.E0));
#32=DIRECTION('',(0.E0,0.E0,-1.E0));
#33=DIRECTION('',(1.E0,0.E0,0.E0));
#34=AXIS2_PLACEMENT_3D('',#31,#32,#33);
#36=CARTESIAN_POINT('',(1.03E1,1.03E1,0.E0));
#37=DIRECTION('',(0.E0,0.E0,-1.E0));
#38=DIRECTION('',(-1.E0,0.E0,0.E0));
#39=AXIS2_PLACEMENT_3D('',#36,#37,#38);
#41=CARTESIAN_POINT('',(-1.03E1,1.03E1,0.E0));
#42=DIRECTION('',(0.E0,0.E0,-1.E0));
#43=DIRECTION('',(1.E0,0.E0,0.E0));
#44=AXIS2_PLACEMENT_3D('',#41,#42,#43);
#46=CARTESIAN_POINT('',(-1.03E1,1.03E1,0.E0));
#47=DIRECTION('',(0.E0,0.E0,-1.E0));
#48=DIRECTION('',(-1.E0,0.E0,0.E0));
#49=AXIS2_PLACEMENT_3D('',#46,#47,#48);
#51=CARTESIAN_POINT('',(1.03E1,-1.03E1,0.E0));
#52=DIRECTION('',(0.E0,0.E0,-1.E0));
#53=DIRECTION('',(1.E0,0.E0,0.E0));
#54=AXIS2_PLACEMENT_3D('',#51,#52,#53);
#56=CARTESIAN_POINT('',(1.03E1,-1.03E1,0.E0));
#57=DIRECTION('',(0.E0,0.E0,-1.E0));
#58=DIRECTION('',(-1.E0,0.E0,0.E0));
#59=AXIS2_PLACEMENT_3D('',#56,#57,#58);
#61=CARTESIAN_POINT('',(-1.03E1,-1.03E1,0.E0));
#62=DIRECTION('',(0.E0,0.E0,-1.E0));
#63=DIRECTION('',(1.E0,0.E0,0.E0));
#64=AXIS2_PLACEMENT_3D('',#61,#62,#63);
#66=CARTESIAN_POINT('',(-1.03E1,-1.03E1,0.E0));
#67=DIRECTION('',(0.E0,0.E0,-1.E0));
#68=DIRECTION('',(-1.E0,0.E0,0.E0));
#69=AXIS2_PLACEMENT_3D('',#66,#67,#68);
#71=DIRECTION('',(0.E0,0.E0,1.E0));
#72=VECTOR('',#71,1.E0);
#73=CARTESIAN_POINT('',(1.11E1,-1.31E1,0.E0));
#74=LINE('',#73,#72);
#75=DIRECTION('',(0.E0,0.E0,-1.E0));
#76=VECTOR('',#75,1.E0);
#77=CARTESIAN_POINT('',(1.31E1,-1.11E1,1.E0));
#78=LINE('',#77,#76);
#79=DIRECTION('',(1.E0,0.E0,0.E0));
#80=VECTOR('',#79,2.22E1);
#81=CARTESIAN_POINT('',(-1.11E1,-1.31E1,0.E0));
#82=LINE('',#81,#80);
#83=DIRECTION('',(-1.E0,0.E0,0.E0));
#84=VECTOR('',#83,2.22E1);
#85=CARTESIAN_POINT('',(1.11E1,-1.31E1,1.E0));
#86=LINE('',#85,#84);
#87=DIRECTION('',(0.E0,0.E0,1.E0));
#88=VECTOR('',#87,1.E0);
#89=CARTESIAN_POINT('',(-1.31E1,-1.11E1,0.E0));
#90=LINE('',#89,#88);
#91=DIRECTION('',(0.E0,0.E0,-1.E0));
#92=VECTOR('',#91,1.E0);
#93=CARTESIAN_POINT('',(-1.11E1,-1.31E1,1.E0));
#94=LINE('',#93,#92);
#95=DIRECTION('',(0.E0,1.E0,0.E0));
#96=VECTOR('',#95,2.22E1);
#97=CARTESIAN_POINT('',(-1.31E1,-1.11E1,1.E0));
#98=LINE('',#97,#96);
#99=DIRECTION('',(0.E0,-1.E0,0.E0));
#100=VECTOR('',#99,2.22E1);
#101=CARTESIAN_POINT('',(-1.31E1,1.11E1,0.E0));
#102=LINE('',#101,#100);
#103=DIRECTION('',(0.E0,0.E0,1.E0));
#104=VECTOR('',#103,1.E0);
#105=CARTESIAN_POINT('',(-1.11E1,1.31E1,0.E0));
#106=LINE('',#105,#104);
#107=DIRECTION('',(0.E0,0.E0,-1.E0));
#108=VECTOR('',#107,1.E0);
#109=CARTESIAN_POINT('',(-1.31E1,1.11E1,1.E0));
#110=LINE('',#109,#108);
#111=DIRECTION('',(1.E0,0.E0,0.E0));
#112=VECTOR('',#111,2.22E1);
#113=CARTESIAN_POINT('',(-1.11E1,1.31E1,1.E0));
#114=LINE('',#113,#112);
#115=DIRECTION('',(-1.E0,0.E0,0.E0));
#116=VECTOR('',#115,2.22E1);
#117=CARTESIAN_POINT('',(1.11E1,1.31E1,0.E0));
#118=LINE('',#117,#116);
#119=DIRECTION('',(0.E0,0.E0,1.E0));
#120=VECTOR('',#119,1.E0);
#121=CARTESIAN_POINT('',(1.31E1,1.11E1,0.E0));
#122=LINE('',#121,#120);
#123=DIRECTION('',(0.E0,0.E0,-1.E0));
#124=VECTOR('',#123,1.E0);
#125=CARTESIAN_POINT('',(1.11E1,1.31E1,1.E0));
#126=LINE('',#125,#124);
#127=DIRECTION('',(0.E0,-1.E0,0.E0));
#128=VECTOR('',#127,2.22E1);
#129=CARTESIAN_POINT('',(1.31E1,1.11E1,1.E0));
#130=LINE('',#129,#128);
#131=DIRECTION('',(0.E0,1.E0,0.E0));
#132=VECTOR('',#131,2.22E1);
#133=CARTESIAN_POINT('',(1.31E1,-1.11E1,0.E0));
#134=LINE('',#133,#132);
#135=CARTESIAN_POINT('',(1.11E1,-1.11E1,9.999999999999E-1));
#136=DIRECTION('',(0.E0,0.E0,1.E0));
#137=DIRECTION('',(0.E0,-1.E0,0.E0));
#138=AXIS2_PLACEMENT_3D('',#135,#136,#137);
#140=CARTESIAN_POINT('',(-1.11E1,-1.11E1,9.999999999999E-1));
#141=DIRECTION('',(0.E0,0.E0,1.E0));
#142=DIRECTION('',(-1.E0,0.E0,0.E0));
#143=AXIS2_PLACEMENT_3D('',#140,#141,#142);
#145=CARTESIAN_POINT('',(-1.11E1,1.11E1,9.999999999999E-1));
#146=DIRECTION('',(0.E0,0.E0,1.E0));
#147=DIRECTION('',(0.E0,1.E0,0.E0));
#148=AXIS2_PLACEMENT_3D('',#145,#146,#147);
#150=CARTESIAN_POINT('',(1.11E1,1.11E1,9.999999999999E-1));
#151=DIRECTION('',(0.E0,0.E0,1.E0));
#152=DIRECTION('',(1.E0,0.E0,0.E0));
#153=AXIS2_PLACEMENT_3D('',#150,#151,#152);
#155=CARTESIAN_POINT('',(0.E0,0.E0,9.999999999999E-1));
#156=DIRECTION('',(0.E0,0.E0,-1.E0));
#157=DIRECTION('',(1.E0,0.E0,0.E0));
#158=AXIS2_PLACEMENT_3D('',#155,#156,#157);
#160=CARTESIAN_POINT('',(0.E0,0.E0,9.999999999999E-1));
#161=DIRECTION('',(0.E0,0.E0,-1.E0));
#162=DIRECTION('',(-1.E0,0.E0,0.E0));
#163=AXIS2_PLACEMENT_3D('',#160,#161,#162);
#165=CARTESIAN_POINT('',(1.03E1,1.03E1,9.999999999999E-1));
#166=DIRECTION('',(0.E0,0.E0,-1.E0));
#167=DIRECTION('',(1.E0,0.E0,0.E0));
#168=AXIS2_PLACEMENT_3D('',#165,#166,#167);
#170=CARTESIAN_POINT('',(1.03E1,1.03E1,9.999999999999E-1));
#171=DIRECTION('',(0.E0,0.E0,-1.E0));
#172=DIRECTION('',(-1.E0,0.E0,0.E0));
#173=AXIS2_PLACEMENT_3D('',#170,#171,#172);
#175=CARTESIAN_POINT('',(-1.03E1,1.03E1,9.999999999999E-1));
#176=DIRECTION('',(0.E0,0.E0,-1.E0));
#177=DIRECTION('',(1.E0,0.E0,0.E0));
#178=AXIS2_PLACEMENT_3D('',#175,#176,#177);
#180=CARTESIAN_POINT('',(-1.03E1,1.03E1,9.999999999999E-1));
#181=DIRECTION('',(0.E0,0.E0,-1.E0));
#182=DIRECTION('',(-1.E0,0.E0,0.E0));
#183=AXIS2_PLACEMENT_3D('',#180,#181,#182);
#185=CARTESIAN_POINT('',(1.03E1,-1.03E1,9.999999999999E-1));
#186=DIRECTION('',(0.E0,0.E0,-1.E0));
#187=DIRECTION('',(1.E0,0.E0,0.E0));
#188=AXIS2_PLACEMENT_3D('',#185,#186,#187);
#190=CARTESIAN_POINT('',(1.03E1,-1.03E1,9.999999999999E-1));
#191=DIRECTION('',(0.E0,0.E0,-1.E0));
#192=DIRECTION('',(-1.E0,0.E0,0.E0));
#193=AXIS2_PLACEMENT_3D('',#190,#191,#192);
#195=CARTESIAN_POINT('',(-1.03E1,-1.03E1,9.999999999999E-1));
#196=DIRECTION('',(0.E0,0.E0,-1.E0));
#197=DIRECTION('',(1.E0,0.E0,0.E0));
#198=AXIS2_PLACEMENT_3D('',#195,#196,#197);
#200=CARTESIAN_POINT('',(-1.03E1,-1.03E1,9.999999999999E-1));
#201=DIRECTION('',(0.E0,0.E0,-1.E0));
#202=DIRECTION('',(-1.E0,0.E0,0.E0));
#203=AXIS2_PLACEMENT_3D('',#200,#201,#202);
#205=DIRECTION('',(0.E0,0.E0,-1.E0));
#206=VECTOR('',#205,9.999999999999E-1);
#207=CARTESIAN_POINT('',(-9.5E0,-1.307067113369E-12,9.999999999999E-1));
#208=LINE('',#207,#206);
#209=DIRECTION('',(0.E0,0.E0,1.E0));
#210=VECTOR('',#209,9.999999999999E-1);
#211=CARTESIAN_POINT('',(9.5E0,0.E0,0.E0));
#212=LINE('',#211,#210);
#213=DIRECTION('',(0.E0,0.E0,-1.E0));
#214=VECTOR('',#213,9.999999999999E-1);
#215=CARTESIAN_POINT('',(8.65E0,1.03E1,9.999999999999E-1));
#216=LINE('',#215,#214);
#217=DIRECTION('',(0.E0,0.E0,1.E0));
#218=VECTOR('',#217,9.999999999999E-1);
#219=CARTESIAN_POINT('',(1.195E1,1.03E1,0.E0));
#220=LINE('',#219,#218);
#221=DIRECTION('',(0.E0,0.E0,-1.E0));
#222=VECTOR('',#221,9.999999999999E-1);
#223=CARTESIAN_POINT('',(-1.195E1,1.03E1,9.999999999999E-1));
#224=LINE('',#223,#222);
#225=DIRECTION('',(0.E0,0.E0,1.E0));
#226=VECTOR('',#225,9.999999999999E-1);
#227=CARTESIAN_POINT('',(-8.65E0,1.03E1,0.E0));
#228=LINE('',#227,#226);
#229=DIRECTION('',(0.E0,0.E0,-1.E0));
#230=VECTOR('',#229,9.999999999999E-1);
#231=CARTESIAN_POINT('',(8.65E0,-1.03E1,9.999999999999E-1));
#232=LINE('',#231,#230);
#233=DIRECTION('',(0.E0,0.E0,1.E0));
#234=VECTOR('',#233,9.999999999999E-1);
#235=CARTESIAN_POINT('',(1.195E1,-1.03E1,0.E0));
#236=LINE('',#235,#234);
#237=DIRECTION('',(0.E0,0.E0,-1.E0));
#238=VECTOR('',#237,9.999999999999E-1);
#239=CARTESIAN_POINT('',(-1.195E1,-1.03E1,9.999999999999E-1));
#240=LINE('',#239,#238);
#241=DIRECTION('',(0.E0,0.E0,1.E0));
#242=VECTOR('',#241,9.999999999999E-1);
#243=CARTESIAN_POINT('',(-8.65E0,-1.03E1,0.E0));
#244=LINE('',#243,#242);
#245=CARTESIAN_POINT('',(1.11E1,-1.31E1,0.E0));
#246=CARTESIAN_POINT('',(1.31E1,-1.11E1,0.E0));
#247=VERTEX_POINT('',#245);
#248=VERTEX_POINT('',#246);
#249=CARTESIAN_POINT('',(-1.11E1,-1.31E1,0.E0));
#250=VERTEX_POINT('',#249);
#251=CARTESIAN_POINT('',(-1.31E1,-1.11E1,0.E0));
#252=VERTEX_POINT('',#251);
#253=CARTESIAN_POINT('',(-1.31E1,1.11E1,0.E0));
#254=VERTEX_POINT('',#253);
#255=CARTESIAN_POINT('',(-1.11E1,1.31E1,0.E0));
#256=VERTEX_POINT('',#255);
#257=CARTESIAN_POINT('',(1.11E1,1.31E1,0.E0));
#258=VERTEX_POINT('',#257);
#259=CARTESIAN_POINT('',(1.31E1,1.11E1,0.E0));
#260=VERTEX_POINT('',#259);
#261=CARTESIAN_POINT('',(9.5E0,0.E0,0.E0));
#262=CARTESIAN_POINT('',(-9.5E0,0.E0,0.E0));
#263=VERTEX_POINT('',#261);
#264=VERTEX_POINT('',#262);
#265=CARTESIAN_POINT('',(1.195E1,1.03E1,0.E0));
#266=CARTESIAN_POINT('',(8.65E0,1.03E1,0.E0));
#267=VERTEX_POINT('',#265);
#268=VERTEX_POINT('',#266);
#269=CARTESIAN_POINT('',(-8.65E0,1.03E1,0.E0));
#270=CARTESIAN_POINT('',(-1.195E1,1.03E1,0.E0));
#271=VERTEX_POINT('',#269);
#272=VERTEX_POINT('',#270);
#273=CARTESIAN_POINT('',(1.195E1,-1.03E1,0.E0));
#274=CARTESIAN_POINT('',(8.65E0,-1.03E1,0.E0));
#275=VERTEX_POINT('',#273);
#276=VERTEX_POINT('',#274);
#277=CARTESIAN_POINT('',(-8.65E0,-1.03E1,0.E0));
#278=CARTESIAN_POINT('',(-1.195E1,-1.03E1,0.E0));
#279=VERTEX_POINT('',#277);
#280=VERTEX_POINT('',#278);
#281=CARTESIAN_POINT('',(-9.5E0,-1.307067113369E-12,9.999999999999E-1));
#282=VERTEX_POINT('',#281);
#283=CARTESIAN_POINT('',(9.5E0,0.E0,9.999999999999E-1));
#284=VERTEX_POINT('',#283);
#285=CARTESIAN_POINT('',(1.11E1,-1.31E1,9.999999999999E-1));
#286=CARTESIAN_POINT('',(1.31E1,-1.11E1,9.999999999999E-1));
#287=VERTEX_POINT('',#285);
#288=VERTEX_POINT('',#286);
#289=CARTESIAN_POINT('',(-1.11E1,-1.31E1,1.E0));
#290=VERTEX_POINT('',#289);
#291=CARTESIAN_POINT('',(-1.31E1,-1.11E1,9.999999999999E-1));
#292=VERTEX_POINT('',#291);
#293=CARTESIAN_POINT('',(-1.31E1,1.11E1,1.E0));
#294=VERTEX_POINT('',#293);
#295=CARTESIAN_POINT('',(-1.11E1,1.31E1,9.999999999999E-1));
#296=VERTEX_POINT('',#295);
#297=CARTESIAN_POINT('',(1.11E1,1.31E1,1.E0));
#298=VERTEX_POINT('',#297);
#299=CARTESIAN_POINT('',(1.31E1,1.11E1,9.999999999999E-1));
#300=VERTEX_POINT('',#299);
#301=CARTESIAN_POINT('',(1.195E1,1.03E1,9.999999999999E-1));
#302=CARTESIAN_POINT('',(8.65E0,1.03E1,9.999999999999E-1));
#303=VERTEX_POINT('',#301);
#304=VERTEX_POINT('',#302);
#305=CARTESIAN_POINT('',(-8.65E0,1.03E1,9.999999999999E-1));
#306=CARTESIAN_POINT('',(-1.195E1,1.03E1,9.999999999999E-1));
#307=VERTEX_POINT('',#305);
#308=VERTEX_POINT('',#306);
#309=CARTESIAN_POINT('',(1.195E1,-1.03E1,9.999999999999E-1));
#310=CARTESIAN_POINT('',(8.65E0,-1.03E1,9.999999999999E-1));
#311=VERTEX_POINT('',#309);
#312=VERTEX_POINT('',#310);
#313=CARTESIAN_POINT('',(-8.65E0,-1.03E1,9.999999999999E-1));
#314=CARTESIAN_POINT('',(-1.195E1,-1.03E1,9.999999999999E-1));
#315=VERTEX_POINT('',#313);
#316=VERTEX_POINT('',#314);
#317=CARTESIAN_POINT('',(0.E0,0.E0,0.E0));
#318=DIRECTION('',(0.E0,0.E0,1.E0));
#319=DIRECTION('',(1.E0,0.E0,0.E0));
#320=AXIS2_PLACEMENT_3D('',#317,#318,#319);
#321=PLANE('',#320);
#323=ORIENTED_EDGE('',*,*,#322,.T.);
#325=ORIENTED_EDGE('',*,*,#324,.T.);
#327=ORIENTED_EDGE('',*,*,#326,.T.);
#329=ORIENTED_EDGE('',*,*,#328,.T.);
#331=ORIENTED_EDGE('',*,*,#330,.T.);
#333=ORIENTED_EDGE('',*,*,#332,.T.);
#335=ORIENTED_EDGE('',*,*,#334,.T.);
#337=ORIENTED_EDGE('',*,*,#336,.T.);
#338=EDGE_LOOP('',(#323,#325,#327,#329,#331,#333,#335,#337));
#339=FACE_OUTER_BOUND('',#338,.F.);
#341=ORIENTED_EDGE('',*,*,#340,.T.);
#343=ORIENTED_EDGE('',*,*,#342,.T.);
#344=EDGE_LOOP('',(#341,#343));
#345=FACE_BOUND('',#344,.F.);
#347=ORIENTED_EDGE('',*,*,#346,.T.);
#349=ORIENTED_EDGE('',*,*,#348,.T.);
#350=EDGE_LOOP('',(#347,#349));
#351=FACE_BOUND('',#350,.F.);
#353=ORIENTED_EDGE('',*,*,#352,.T.);
#355=ORIENTED_EDGE('',*,*,#354,.T.);
#356=EDGE_LOOP('',(#353,#355));
#357=FACE_BOUND('',#356,.F.);
#359=ORIENTED_EDGE('',*,*,#358,.T.);
#361=ORIENTED_EDGE('',*,*,#360,.T.);
#362=EDGE_LOOP('',(#359,#361));
#363=FACE_BOUND('',#362,.F.);
#365=ORIENTED_EDGE('',*,*,#364,.T.);
#367=ORIENTED_EDGE('',*,*,#366,.T.);
#368=EDGE_LOOP('',(#365,#367));
#369=FACE_BOUND('',#368,.F.);
#370=ADVANCED_FACE('',(#339,#345,#351,#357,#363,#369),#321,.F.);
#371=CARTESIAN_POINT('',(1.11E1,-1.11E1,1.048909161841E0));
#372=DIRECTION('',(0.E0,0.E0,-1.E0));
#373=DIRECTION('',(1.E0,0.E0,0.E0));
#374=AXIS2_PLACEMENT_3D('',#371,#372,#373);
#375=CYLINDRICAL_SURFACE('',#374,2.E0);
#376=ORIENTED_EDGE('',*,*,#322,.F.);
#378=ORIENTED_EDGE('',*,*,#377,.T.);
#380=ORIENTED_EDGE('',*,*,#379,.T.);
#382=ORIENTED_EDGE('',*,*,#381,.T.);
#383=EDGE_LOOP('',(#376,#378,#380,#382));
#384=FACE_OUTER_BOUND('',#383,.F.);
#385=ADVANCED_FACE('',(#384),#375,.T.);
#386=CARTESIAN_POINT('',(0.E0,-1.31E1,5.E-1));
#387=DIRECTION('',(0.E0,1.E0,0.E0));
#388=DIRECTION('',(1.E0,0.E0,0.E0));
#389=AXIS2_PLACEMENT_3D('',#386,#387,#388);
#390=PLANE('',#389);
#391=ORIENTED_EDGE('',*,*,#377,.F.);
#392=ORIENTED_EDGE('',*,*,#336,.F.);
#394=ORIENTED_EDGE('',*,*,#393,.F.);
#396=ORIENTED_EDGE('',*,*,#395,.F.);
#397=EDGE_LOOP('',(#391,#392,#394,#396));
#398=FACE_OUTER_BOUND('',#397,.F.);
#399=ADVANCED_FACE('',(#398),#390,.F.);
#400=CARTESIAN_POINT('',(-1.11E1,-1.11E1,1.048909161841E0));
#401=DIRECTION('',(0.E0,0.E0,-1.E0));
#402=DIRECTION('',(0.E0,-1.E0,0.E0));
#403=AXIS2_PLACEMENT_3D('',#400,#401,#402);
#404=CYLINDRICAL_SURFACE('',#403,2.E0);
#405=ORIENTED_EDGE('',*,*,#334,.F.);
#407=ORIENTED_EDGE('',*,*,#406,.T.);
#409=ORIENTED_EDGE('',*,*,#408,.T.);
#410=ORIENTED_EDGE('',*,*,#393,.T.);
#411=EDGE_LOOP('',(#405,#407,#409,#410));
#412=FACE_OUTER_BOUND('',#411,.F.);
#413=ADVANCED_FACE('',(#412),#404,.T.);
#414=CARTESIAN_POINT('',(-1.31E1,0.E0,5.E-1));
#415=DIRECTION('',(1.E0,0.E0,0.E0));
#416=DIRECTION('',(0.E0,-1.E0,0.E0));
#417=AXIS2_PLACEMENT_3D('',#414,#415,#416);
#418=PLANE('',#417);
#420=ORIENTED_EDGE('',*,*,#419,.F.);
#422=ORIENTED_EDGE('',*,*,#421,.F.);
#423=ORIENTED_EDGE('',*,*,#406,.F.);
#424=ORIENTED_EDGE('',*,*,#332,.F.);
#425=EDGE_LOOP('',(#420,#422,#423,#424));
#426=FACE_OUTER_BOUND('',#425,.F.);
#427=ADVANCED_FACE('',(#426),#418,.F.);
#428=CARTESIAN_POINT('',(-1.11E1,1.11E1,1.048909161841E0));
#429=DIRECTION('',(0.E0,0.E0,-1.E0));
#430=DIRECTION('',(-1.E0,0.E0,0.E0));
#431=AXIS2_PLACEMENT_3D('',#428,#429,#430);
#432=CYLINDRICAL_SURFACE('',#431,2.E0);
#433=ORIENTED_EDGE('',*,*,#330,.F.);
#435=ORIENTED_EDGE('',*,*,#434,.T.);
#437=ORIENTED_EDGE('',*,*,#436,.T.);
#438=ORIENTED_EDGE('',*,*,#419,.T.);
#439=EDGE_LOOP('',(#433,#435,#437,#438));
#440=FACE_OUTER_BOUND('',#439,.F.);
#441=ADVANCED_FACE('',(#440),#432,.T.);
#442=CARTESIAN_POINT('',(0.E0,1.31E1,5.E-1));
#443=DIRECTION('',(0.E0,1.E0,0.E0));
#444=DIRECTION('',(-1.E0,0.E0,0.E0));
#445=AXIS2_PLACEMENT_3D('',#442,#443,#444);
#446=PLANE('',#445);
#448=ORIENTED_EDGE('',*,*,#447,.F.);
#450=ORIENTED_EDGE('',*,*,#449,.F.);
#451=ORIENTED_EDGE('',*,*,#434,.F.);
#452=ORIENTED_EDGE('',*,*,#328,.F.);
#453=EDGE_LOOP('',(#448,#450,#451,#452));
#454=FACE_OUTER_BOUND('',#453,.F.);
#455=ADVANCED_FACE('',(#454),#446,.T.);
#456=CARTESIAN_POINT('',(1.11E1,1.11E1,1.048909161841E0));
#457=DIRECTION('',(0.E0,0.E0,-1.E0));
#458=DIRECTION('',(0.E0,1.E0,0.E0));
#459=AXIS2_PLACEMENT_3D('',#456,#457,#458);
#460=CYLINDRICAL_SURFACE('',#459,2.E0);
#461=ORIENTED_EDGE('',*,*,#326,.F.);
#463=ORIENTED_EDGE('',*,*,#462,.T.);
#465=ORIENTED_EDGE('',*,*,#464,.T.);
#466=ORIENTED_EDGE('',*,*,#447,.T.);
#467=EDGE_LOOP('',(#461,#463,#465,#466));
#468=FACE_OUTER_BOUND('',#467,.F.);
#469=ADVANCED_FACE('',(#468),#460,.T.);
#470=CARTESIAN_POINT('',(1.31E1,0.E0,5.E-1));
#471=DIRECTION('',(1.E0,0.E0,0.E0));
#472=DIRECTION('',(0.E0,1.E0,0.E0));
#473=AXIS2_PLACEMENT_3D('',#470,#471,#472);
#474=PLANE('',#473);
#475=ORIENTED_EDGE('',*,*,#381,.F.);
#477=ORIENTED_EDGE('',*,*,#476,.F.);
#478=ORIENTED_EDGE('',*,*,#462,.F.);
#479=ORIENTED_EDGE('',*,*,#324,.F.);
#480=EDGE_LOOP('',(#475,#477,#478,#479));
#481=FACE_OUTER_BOUND('',#480,.F.);
#482=ADVANCED_FACE('',(#481),#474,.T.);
#483=CARTESIAN_POINT('',(0.E0,0.E0,1.E0));
#484=DIRECTION('',(0.E0,0.E0,1.E0));
#485=DIRECTION('',(1.E0,0.E0,0.E0));
#486=AXIS2_PLACEMENT_3D('',#483,#484,#485);
#487=PLANE('',#486);
#488=ORIENTED_EDGE('',*,*,#379,.F.);
#489=ORIENTED_EDGE('',*,*,#395,.T.);
#490=ORIENTED_EDGE('',*,*,#408,.F.);
#491=ORIENTED_EDGE('',*,*,#421,.T.);
#492=ORIENTED_EDGE('',*,*,#436,.F.);
#493=ORIENTED_EDGE('',*,*,#449,.T.);
#494=ORIENTED_EDGE('',*,*,#464,.F.);
#495=ORIENTED_EDGE('',*,*,#476,.T.);
#496=EDGE_LOOP('',(#488,#489,#490,#491,#492,#493,#494,#495));
#497=FACE_OUTER_BOUND('',#496,.F.);
#499=ORIENTED_EDGE('',*,*,#498,.F.);
#501=ORIENTED_EDGE('',*,*,#500,.F.);
#502=EDGE_LOOP('',(#499,#501));
#503=FACE_BOUND('',#502,.F.);
#505=ORIENTED_EDGE('',*,*,#504,.F.);
#507=ORIENTED_EDGE('',*,*,#506,.F.);
#508=EDGE_LOOP('',(#505,#507));
#509=FACE_BOUND('',#508,.F.);
#511=ORIENTED_EDGE('',*,*,#510,.F.);
#513=ORIENTED_EDGE('',*,*,#512,.F.);
#514=EDGE_LOOP('',(#511,#513));
#515=FACE_BOUND('',#514,.F.);
#517=ORIENTED_EDGE('',*,*,#516,.F.);
#519=ORIENTED_EDGE('',*,*,#518,.F.);
#520=EDGE_LOOP('',(#517,#519));
#521=FACE_BOUND('',#520,.F.);
#523=ORIENTED_EDGE('',*,*,#522,.F.);
#525=ORIENTED_EDGE('',*,*,#524,.F.);
#526=EDGE_LOOP('',(#523,#525));
#527=FACE_BOUND('',#526,.F.);
#528=ADVANCED_FACE('',(#497,#503,#509,#515,#521,#527),#487,.T.);
#529=CARTESIAN_POINT('',(0.E0,0.E0,-4.890916184111E-2));
#530=DIRECTION('',(0.E0,0.E0,1.E0));
#531=DIRECTION('',(1.E0,0.E0,0.E0));
#532=AXIS2_PLACEMENT_3D('',#529,#530,#531);
#533=CYLINDRICAL_SURFACE('',#532,9.5E0);
#534=ORIENTED_EDGE('',*,*,#340,.F.);
#536=ORIENTED_EDGE('',*,*,#535,.T.);
#537=ORIENTED_EDGE('',*,*,#498,.T.);
#539=ORIENTED_EDGE('',*,*,#538,.T.);
#540=EDGE_LOOP('',(#534,#536,#537,#539));
#541=FACE_OUTER_BOUND('',#540,.F.);
#542=ADVANCED_FACE('',(#541),#533,.F.);
#543=CARTESIAN_POINT('',(0.E0,0.E0,-4.890916184111E-2));
#544=DIRECTION('',(0.E0,0.E0,1.E0));
#545=DIRECTION('',(1.E0,0.E0,0.E0));
#546=AXIS2_PLACEMENT_3D('',#543,#544,#545);
#547=CYLINDRICAL_SURFACE('',#546,9.5E0);
#548=ORIENTED_EDGE('',*,*,#342,.F.);
#549=ORIENTED_EDGE('',*,*,#538,.F.);
#550=ORIENTED_EDGE('',*,*,#500,.T.);
#551=ORIENTED_EDGE('',*,*,#535,.F.);
#552=EDGE_LOOP('',(#548,#549,#550,#551));
#553=FACE_OUTER_BOUND('',#552,.F.);
#554=ADVANCED_FACE('',(#553),#547,.F.);
#555=CARTESIAN_POINT('',(1.03E1,1.03E1,-4.890916184111E-2));
#556=DIRECTION('',(0.E0,0.E0,1.E0));
#557=DIRECTION('',(1.E0,0.E0,0.E0));
#558=AXIS2_PLACEMENT_3D('',#555,#556,#557);
#559=CYLINDRICAL_SURFACE('',#558,1.65E0);
#560=ORIENTED_EDGE('',*,*,#346,.F.);
#562=ORIENTED_EDGE('',*,*,#561,.T.);
#563=ORIENTED_EDGE('',*,*,#504,.T.);
#565=ORIENTED_EDGE('',*,*,#564,.T.);
#566=EDGE_LOOP('',(#560,#562,#563,#565));
#567=FACE_OUTER_BOUND('',#566,.F.);
#568=ADVANCED_FACE('',(#567),#559,.F.);
#569=CARTESIAN_POINT('',(1.03E1,1.03E1,-4.890916184111E-2));
#570=DIRECTION('',(0.E0,0.E0,1.E0));
#571=DIRECTION('',(1.E0,0.E0,0.E0));
#572=AXIS2_PLACEMENT_3D('',#569,#570,#571);
#573=CYLINDRICAL_SURFACE('',#572,1.65E0);
#574=ORIENTED_EDGE('',*,*,#348,.F.);
#575=ORIENTED_EDGE('',*,*,#564,.F.);
#576=ORIENTED_EDGE('',*,*,#506,.T.);
#577=ORIENTED_EDGE('',*,*,#561,.F.);
#578=EDGE_LOOP('',(#574,#575,#576,#577));
#579=FACE_OUTER_BOUND('',#578,.F.);
#580=ADVANCED_FACE('',(#579),#573,.F.);
#581=CARTESIAN_POINT('',(-1.03E1,1.03E1,-4.890916184111E-2));
#582=DIRECTION('',(0.E0,0.E0,1.E0));
#583=DIRECTION('',(1.E0,0.E0,0.E0));
#584=AXIS2_PLACEMENT_3D('',#581,#582,#583);
#585=CYLINDRICAL_SURFACE('',#584,1.65E0);
#586=ORIENTED_EDGE('',*,*,#352,.F.);
#588=ORIENTED_EDGE('',*,*,#587,.T.);
#589=ORIENTED_EDGE('',*,*,#510,.T.);
#591=ORIENTED_EDGE('',*,*,#590,.T.);
#592=EDGE_LOOP('',(#586,#588,#589,#591));
#593=FACE_OUTER_BOUND('',#592,.F.);
#594=ADVANCED_FACE('',(#593),#585,.F.);
#595=CARTESIAN_POINT('',(-1.03E1,1.03E1,-4.890916184111E-2));
#596=DIRECTION('',(0.E0,0.E0,1.E0));
#597=DIRECTION('',(1.E0,0.E0,0.E0));
#598=AXIS2_PLACEMENT_3D('',#595,#596,#597);
#599=CYLINDRICAL_SURFACE('',#598,1.65E0);
#600=ORIENTED_EDGE('',*,*,#354,.F.);
#601=ORIENTED_EDGE('',*,*,#590,.F.);
#602=ORIENTED_EDGE('',*,*,#512,.T.);
#603=ORIENTED_EDGE('',*,*,#587,.F.);
#604=EDGE_LOOP('',(#600,#601,#602,#603));
#605=FACE_OUTER_BOUND('',#604,.F.);
#606=ADVANCED_FACE('',(#605),#599,.F.);
#607=CARTESIAN_POINT('',(1.03E1,-1.03E1,-4.890916184111E-2));
#608=DIRECTION('',(0.E0,0.E0,1.E0));
#609=DIRECTION('',(1.E0,0.E0,0.E0));
#610=AXIS2_PLACEMENT_3D('',#607,#608,#609);
#611=CYLINDRICAL_SURFACE('',#610,1.65E0);
#612=ORIENTED_EDGE('',*,*,#358,.F.);
#614=ORIENTED_EDGE('',*,*,#613,.T.);
#615=ORIENTED_EDGE('',*,*,#516,.T.);
#617=ORIENTED_EDGE('',*,*,#616,.T.);
#618=EDGE_LOOP('',(#612,#614,#615,#617));
#619=FACE_OUTER_BOUND('',#618,.F.);
#620=ADVANCED_FACE('',(#619),#611,.F.);
#621=CARTESIAN_POINT('',(1.03E1,-1.03E1,-4.890916184111E-2));
#622=DIRECTION('',(0.E0,0.E0,1.E0));
#623=DIRECTION('',(1.E0,0.E0,0.E0));
#624=AXIS2_PLACEMENT_3D('',#621,#622,#623);
#625=CYLINDRICAL_SURFACE('',#624,1.65E0);
#626=ORIENTED_EDGE('',*,*,#360,.F.);
#627=ORIENTED_EDGE('',*,*,#616,.F.);
#628=ORIENTED_EDGE('',*,*,#518,.T.);
#629=ORIENTED_EDGE('',*,*,#613,.F.);
#630=EDGE_LOOP('',(#626,#627,#628,#629));
#631=FACE_OUTER_BOUND('',#630,.F.);
#632=ADVANCED_FACE('',(#631),#625,.F.);
#633=CARTESIAN_POINT('',(-1.03E1,-1.03E1,-4.890916184111E-2));
#634=DIRECTION('',(0.E0,0.E0,1.E0));
#635=DIRECTION('',(1.E0,0.E0,0.E0));
#636=AXIS2_PLACEMENT_3D('',#633,#634,#635);
#637=CYLINDRICAL_SURFACE('',#636,1.65E0);
#638=ORIENTED_EDGE('',*,*,#364,.F.);
#640=ORIENTED_EDGE('',*,*,#639,.T.);
#641=ORIENTED_EDGE('',*,*,#522,.T.);
#643=ORIENTED_EDGE('',*,*,#642,.T.);
#644=EDGE_LOOP('',(#638,#640,#641,#643));
#645=FACE_OUTER_BOUND('',#644,.F.);
#646=ADVANCED_FACE('',(#645),#637,.F.);
#647=CARTESIAN_POINT('',(-1.03E1,-1.03E1,-4.890916184111E-2));
#648=DIRECTION('',(0.E0,0.E0,1.E0));
#649=DIRECTION('',(1.E0,0.E0,0.E0));
#650=AXIS2_PLACEMENT_3D('',#647,#648,#649);
#651=CYLINDRICAL_SURFACE('',#650,1.65E0);
#652=ORIENTED_EDGE('',*,*,#366,.F.);
#653=ORIENTED_EDGE('',*,*,#642,.F.);
#654=ORIENTED_EDGE('',*,*,#524,.T.);
#655=ORIENTED_EDGE('',*,*,#639,.F.);
#656=EDGE_LOOP('',(#652,#653,#654,#655));
#657=FACE_OUTER_BOUND('',#656,.F.);
#658=ADVANCED_FACE('',(#657),#651,.F.);
#659=CLOSED_SHELL('',(#370,#385,#399,#413,#427,#441,#455,#469,#482,#528,#542,
#554,#568,#580,#594,#606,#620,#632,#646,#658));
#660=MANIFOLD_SOLID_BREP('',#659);
#662=DIMENSIONAL_EXPONENTS(0.E0,0.E0,0.E0,0.E0,0.E0,0.E0,0.E0);
#664=PLANE_ANGLE_MEASURE_WITH_UNIT(PLANE_ANGLE_MEASURE(1.745329251994E-2),#663);
#665=(CONVERSION_BASED_UNIT('DEGREE',#664)NAMED_UNIT(*)PLANE_ANGLE_UNIT());
#667=UNCERTAINTY_MEASURE_WITH_UNIT(LENGTH_MEASURE(3.706440464648E-3),#661,
'closure',
'Maximum model space distance between geometric entities at asserted connectivities');
#668=(GEOMETRIC_REPRESENTATION_CONTEXT(3)GLOBAL_UNCERTAINTY_ASSIGNED_CONTEXT((
#667))GLOBAL_UNIT_ASSIGNED_CONTEXT((#661,#665,#666))REPRESENTATION_CONTEXT
('ID1','3'));
#670=APPLICATION_CONTEXT(
'CONFIGURATION CONTROLLED 3D DESIGNS OF MECHANICAL PARTS AND ASSEMBLIES');
#671=APPLICATION_PROTOCOL_DEFINITION('international standard',
'config_control_design',1994,#670);
#672=DESIGN_CONTEXT('',#670,'design');
#673=MECHANICAL_CONTEXT('',#670,'mechanical');
#674=PRODUCT('RTFD12B','RTFD12B','NOT SPECIFIED',(#673));
#675=PRODUCT_DEFINITION_FORMATION_WITH_SPECIFIED_SOURCE('1','LAST_VERSION',#674,
.MADE.);
#679=PRODUCT_CATEGORY('part','');
#680=PRODUCT_RELATED_PRODUCT_CATEGORY('detail','',(#674));
#681=PRODUCT_CATEGORY_RELATIONSHIP('','',#679,#680);
#682=SECURITY_CLASSIFICATION_LEVEL('unclassified');
#683=SECURITY_CLASSIFICATION('','',#682);
#684=CC_DESIGN_SECURITY_CLASSIFICATION(#683,(#675));
#685=APPROVAL_STATUS('approved');
#686=APPROVAL(#685,'');
#687=CC_DESIGN_APPROVAL(#686,(#683,#675,#676));
#688=CALENDAR_DATE(115,8,7);
#689=COORDINATED_UNIVERSAL_TIME_OFFSET(8,0,.AHEAD.);
#690=LOCAL_TIME(15,13,3.3E1,#689);
#691=DATE_AND_TIME(#688,#690);
#692=APPROVAL_DATE_TIME(#691,#686);
#693=DATE_TIME_ROLE('creation_date');
#694=CC_DESIGN_DATE_AND_TIME_ASSIGNMENT(#691,#693,(#676));
#695=DATE_TIME_ROLE('classification_date');
#696=CC_DESIGN_DATE_AND_TIME_ASSIGNMENT(#691,#695,(#683));
#697=PERSON('UNSPECIFIED','UNSPECIFIED',$,$,$,$);
#698=ORGANIZATION('UNSPECIFIED','UNSPECIFIED','UNSPECIFIED');
#699=PERSON_AND_ORGANIZATION(#697,#698);
#700=APPROVAL_ROLE('approver');
#701=APPROVAL_PERSON_ORGANIZATION(#699,#686,#700);
#702=PERSON_AND_ORGANIZATION_ROLE('creator');
#703=CC_DESIGN_PERSON_AND_ORGANIZATION_ASSIGNMENT(#699,#702,(#675,#676));
#704=PERSON_AND_ORGANIZATION_ROLE('design_supplier');
#705=CC_DESIGN_PERSON_AND_ORGANIZATION_ASSIGNMENT(#699,#704,(#675));
#706=PERSON_AND_ORGANIZATION_ROLE('classification_officer');
#707=CC_DESIGN_PERSON_AND_ORGANIZATION_ASSIGNMENT(#699,#706,(#683));
#708=PERSON_AND_ORGANIZATION_ROLE('design_owner');
#709=CC_DESIGN_PERSON_AND_ORGANIZATION_ASSIGNMENT(#699,#708,(#674));
#5=CIRCLE('',#4,2.E0);
#10=CIRCLE('',#9,2.E0);
#15=CIRCLE('',#14,2.E0);
#20=CIRCLE('',#19,2.E0);
#25=CIRCLE('',#24,9.5E0);
#30=CIRCLE('',#29,9.5E0);
#35=CIRCLE('',#34,1.65E0);
#40=CIRCLE('',#39,1.65E0);
#45=CIRCLE('',#44,1.65E0);
#50=CIRCLE('',#49,1.65E0);
#55=CIRCLE('',#54,1.65E0);
#60=CIRCLE('',#59,1.65E0);
#65=CIRCLE('',#64,1.65E0);
#70=CIRCLE('',#69,1.65E0);
#139=CIRCLE('',#138,2.E0);
#144=CIRCLE('',#143,2.E0);
#149=CIRCLE('',#148,2.E0);
#154=CIRCLE('',#153,2.E0);
#159=CIRCLE('',#158,9.5E0);
#164=CIRCLE('',#163,9.5E0);
#169=CIRCLE('',#168,1.65E0);
#174=CIRCLE('',#173,1.65E0);
#179=CIRCLE('',#178,1.65E0);
#184=CIRCLE('',#183,1.65E0);
#189=CIRCLE('',#188,1.65E0);
#194=CIRCLE('',#193,1.65E0);
#199=CIRCLE('',#198,1.65E0);
#204=CIRCLE('',#203,1.65E0);
#322=EDGE_CURVE('',#247,#248,#5,.T.);
#324=EDGE_CURVE('',#248,#260,#134,.T.);
#326=EDGE_CURVE('',#260,#258,#10,.T.);
#328=EDGE_CURVE('',#258,#256,#118,.T.);
#330=EDGE_CURVE('',#256,#254,#15,.T.);
#332=EDGE_CURVE('',#254,#252,#102,.T.);
#334=EDGE_CURVE('',#252,#250,#20,.T.);
#336=EDGE_CURVE('',#250,#247,#82,.T.);
#340=EDGE_CURVE('',#263,#264,#25,.T.);
#342=EDGE_CURVE('',#264,#263,#30,.T.);
#346=EDGE_CURVE('',#267,#268,#35,.T.);
#348=EDGE_CURVE('',#268,#267,#40,.T.);
#352=EDGE_CURVE('',#271,#272,#45,.T.);
#354=EDGE_CURVE('',#272,#271,#50,.T.);
#358=EDGE_CURVE('',#275,#276,#55,.T.);
#360=EDGE_CURVE('',#276,#275,#60,.T.);
#364=EDGE_CURVE('',#279,#280,#65,.T.);
#366=EDGE_CURVE('',#280,#279,#70,.T.);
#377=EDGE_CURVE('',#247,#287,#74,.T.);
#379=EDGE_CURVE('',#287,#288,#139,.T.);
#381=EDGE_CURVE('',#288,#248,#78,.T.);
#393=EDGE_CURVE('',#290,#250,#94,.T.);
#395=EDGE_CURVE('',#287,#290,#86,.T.);
#406=EDGE_CURVE('',#252,#292,#90,.T.);
#408=EDGE_CURVE('',#292,#290,#144,.T.);
#419=EDGE_CURVE('',#294,#254,#110,.T.);
#421=EDGE_CURVE('',#292,#294,#98,.T.);
#434=EDGE_CURVE('',#256,#296,#106,.T.);
#436=EDGE_CURVE('',#296,#294,#149,.T.);
#447=EDGE_CURVE('',#298,#258,#126,.T.);
#449=EDGE_CURVE('',#296,#298,#114,.T.);
#462=EDGE_CURVE('',#260,#300,#122,.T.);
#464=EDGE_CURVE('',#300,#298,#154,.T.);
#476=EDGE_CURVE('',#300,#288,#130,.T.);
#498=EDGE_CURVE('',#284,#282,#159,.T.);
#500=EDGE_CURVE('',#282,#284,#164,.T.);
#504=EDGE_CURVE('',#303,#304,#169,.T.);
#506=EDGE_CURVE('',#304,#303,#174,.T.);
#510=EDGE_CURVE('',#307,#308,#179,.T.);
#512=EDGE_CURVE('',#308,#307,#184,.T.);
#516=EDGE_CURVE('',#311,#312,#189,.T.);
#518=EDGE_CURVE('',#312,#311,#194,.T.);
#522=EDGE_CURVE('',#315,#316,#199,.T.);
#524=EDGE_CURVE('',#316,#315,#204,.T.);
#535=EDGE_CURVE('',#263,#284,#212,.T.);
#538=EDGE_CURVE('',#282,#264,#208,.T.);
#561=EDGE_CURVE('',#267,#303,#220,.T.);
#564=EDGE_CURVE('',#304,#268,#216,.T.);
#587=EDGE_CURVE('',#271,#307,#228,.T.);
#590=EDGE_CURVE('',#308,#272,#224,.T.);
#613=EDGE_CURVE('',#275,#311,#236,.T.);
#616=EDGE_CURVE('',#312,#276,#232,.T.);
#639=EDGE_CURVE('',#279,#315,#244,.T.);
#642=EDGE_CURVE('',#316,#280,#240,.T.);
#661=(LENGTH_UNIT()NAMED_UNIT(*)SI_UNIT(.MILLI.,.METRE.));
#663=(NAMED_UNIT(*)PLANE_ANGLE_UNIT()SI_UNIT($,.RADIAN.));
#666=(NAMED_UNIT(*)SI_UNIT($,.STERADIAN.)SOLID_ANGLE_UNIT());
#669=ADVANCED_BREP_SHAPE_REPRESENTATION('',(#660),#668);
#676=PRODUCT_DEFINITION('design','',#675,#672);
#677=PRODUCT_DEFINITION_SHAPE('','SHAPE FOR RTFD12B.',#676);
#678=SHAPE_DEFINITION_REPRESENTATION(#677,#669);
ENDSEC;
END-ISO-10303-21;
