ISO-10303-21;
HEADER;
/* Generated by software containing ST-Developer
 * from STEP Tools, Inc. (www.steptools.com) 
 */
/* OPTION: using custom schema-name function */

FILE_DESCRIPTION(
/* description */ (''),
/* implementation_level */ '2;1');

FILE_NAME(
/* name */ 'n 02 016 002x xnxc001-02.stp',
/* time_stamp */ '2021-09-28T13:44:06+02:00',
/* author */ (''),
/* organization */ (''),
/* preprocessor_version */ 'ST-DEVELOPER v16.7',
/* originating_system */ 'SIEMENS PLM Software NX 12.0',
/* authorisation */ '');

FILE_SCHEMA (('AUTOMOTIVE_DESIGN { 1 0 10303 214 3 1 1 1 }'));
ENDSEC;

DATA;
#10=SHAPE_REPRESENTATION_RELATIONSHIP('None',
'relationship between n 02 016 002x xnxc001-02-None and n 02 016 002x 
xnxc001-02-None',#22,#11);
#11=ADVANCED_BREP_SHAPE_REPRESENTATION('n 02 016 002x xnxc001-02-None',
(#32),#273);
#12=SHAPE_DEFINITION_REPRESENTATION(#13,#22);
#13=PRODUCT_DEFINITION_SHAPE('','',#14);
#14=PRODUCT_DEFINITION(' ','',#16,#15);
#15=PRODUCT_DEFINITION_CONTEXT('part definition',#21,'design');
#16=PRODUCT_DEFINITION_FORMATION_WITH_SPECIFIED_SOURCE(' ',' ',#18,
 .NOT_KNOWN.);
#17=PRODUCT_RELATED_PRODUCT_CATEGORY('part','',(#18));
#18=PRODUCT('n 02 016 002x xnxc001-02','n 02 016 002x xnxc001-02',' ',(#19));
#19=PRODUCT_CONTEXT(' ',#21,'mechanical');
#20=APPLICATION_PROTOCOL_DEFINITION('international standard',
'automotive_design',2010,#21);
#21=APPLICATION_CONTEXT(
'core data for automotive mechanical design processes');
#22=SHAPE_REPRESENTATION('n 02 016 002x xnxc001-02-None',(#163),#273);
#23=PRESENTATION_LAYER_ASSIGNMENT('1','Layer 1',(#32));
#24=STYLED_ITEM('',(#25),#32);
#25=PRESENTATION_STYLE_ASSIGNMENT((#26));
#26=SURFACE_STYLE_USAGE(.BOTH.,#27);
#27=SURFACE_SIDE_STYLE('',(#28));
#28=SURFACE_STYLE_FILL_AREA(#29);
#29=FILL_AREA_STYLE('',(#30));
#30=FILL_AREA_STYLE_COLOUR('',#31);
#31=COLOUR_RGB('Medium Steel',0.596063172350652,0.666666666666667,0.686259250782025);
#32=MANIFOLD_SOLID_BREP('',#33);
#33=CLOSED_SHELL('',(#43,#44,#45,#46,#47,#48,#49,#50,#51,#52,#53,#54));
#34=PLANE('',#172);
#35=PLANE('',#174);
#36=PLANE('',#177);
#37=PLANE('',#185);
#38=CONICAL_SURFACE('',#168,0.45,59.0000000000002);
#39=CONICAL_SURFACE('',#179,1.65,15.);
#40=CONICAL_SURFACE('',#181,3.85185988877447E-31,58.9999999999999);
#41=VERTEX_LOOP('',#130);
#42=VERTEX_LOOP('',#138);
#43=ADVANCED_FACE('',(#60,#61),#55,.T.);
#44=ADVANCED_FACE('',(#62,#63),#38,.F.);
#45=ADVANCED_FACE('',(#64,#65),#56,.F.);
#46=ADVANCED_FACE('',(#66,#67),#34,.T.);
#47=ADVANCED_FACE('',(#68,#69),#35,.T.);
#48=ADVANCED_FACE('',(#70,#71),#57,.T.);
#49=ADVANCED_FACE('',(#72,#73),#36,.T.);
#50=ADVANCED_FACE('',(#74,#75),#39,.T.);
#51=ADVANCED_FACE('',(#76,#77),#40,.F.);
#52=ADVANCED_FACE('',(#78,#79),#58,.F.);
#53=ADVANCED_FACE('',(#80,#81),#37,.T.);
#54=ADVANCED_FACE('',(#82,#83),#59,.T.);
#55=CYLINDRICAL_SURFACE('',#166,1.25);
#56=CYLINDRICAL_SURFACE('',#170,0.75);
#57=CYLINDRICAL_SURFACE('',#175,1.75);
#58=CYLINDRICAL_SURFACE('',#183,0.8);
#59=CYLINDRICAL_SURFACE('',#186,1.25);
#60=FACE_BOUND('',#84,.T.);
#61=FACE_BOUND('',#85,.T.);
#62=FACE_BOUND('',#41,.T.);
#63=FACE_BOUND('',#86,.T.);
#64=FACE_BOUND('',#87,.T.);
#65=FACE_BOUND('',#88,.T.);
#66=FACE_BOUND('',#89,.T.);
#67=FACE_BOUND('',#90,.T.);
#68=FACE_BOUND('',#91,.T.);
#69=FACE_BOUND('',#92,.T.);
#70=FACE_BOUND('',#93,.T.);
#71=FACE_BOUND('',#94,.T.);
#72=FACE_BOUND('',#95,.T.);
#73=FACE_BOUND('',#96,.T.);
#74=FACE_BOUND('',#97,.T.);
#75=FACE_BOUND('',#98,.T.);
#76=FACE_BOUND('',#99,.T.);
#77=FACE_BOUND('',#42,.T.);
#78=FACE_BOUND('',#100,.T.);
#79=FACE_BOUND('',#101,.T.);
#80=FACE_BOUND('',#102,.T.);
#81=FACE_BOUND('',#103,.T.);
#82=FACE_BOUND('',#104,.T.);
#83=FACE_BOUND('',#105,.T.);
#84=EDGE_LOOP('',(#106));
#85=EDGE_LOOP('',(#107));
#86=EDGE_LOOP('',(#108));
#87=EDGE_LOOP('',(#109));
#88=EDGE_LOOP('',(#110));
#89=EDGE_LOOP('',(#111));
#90=EDGE_LOOP('',(#112));
#91=EDGE_LOOP('',(#113));
#92=EDGE_LOOP('',(#114));
#93=EDGE_LOOP('',(#115));
#94=EDGE_LOOP('',(#116));
#95=EDGE_LOOP('',(#117));
#96=EDGE_LOOP('',(#118));
#97=EDGE_LOOP('',(#119));
#98=EDGE_LOOP('',(#120));
#99=EDGE_LOOP('',(#121));
#100=EDGE_LOOP('',(#122));
#101=EDGE_LOOP('',(#123));
#102=EDGE_LOOP('',(#124));
#103=EDGE_LOOP('',(#125));
#104=EDGE_LOOP('',(#126));
#105=EDGE_LOOP('',(#127));
#106=ORIENTED_EDGE('',*,*,#141,.F.);
#107=ORIENTED_EDGE('',*,*,#142,.T.);
#108=ORIENTED_EDGE('',*,*,#143,.F.);
#109=ORIENTED_EDGE('',*,*,#143,.T.);
#110=ORIENTED_EDGE('',*,*,#144,.F.);
#111=ORIENTED_EDGE('',*,*,#145,.F.);
#112=ORIENTED_EDGE('',*,*,#144,.T.);
#113=ORIENTED_EDGE('',*,*,#146,.T.);
#114=ORIENTED_EDGE('',*,*,#142,.F.);
#115=ORIENTED_EDGE('',*,*,#146,.F.);
#116=ORIENTED_EDGE('',*,*,#145,.T.);
#117=ORIENTED_EDGE('',*,*,#141,.T.);
#118=ORIENTED_EDGE('',*,*,#147,.T.);
#119=ORIENTED_EDGE('',*,*,#148,.T.);
#120=ORIENTED_EDGE('',*,*,#147,.F.);
#121=ORIENTED_EDGE('',*,*,#149,.T.);
#122=ORIENTED_EDGE('',*,*,#149,.F.);
#123=ORIENTED_EDGE('',*,*,#150,.F.);
#124=ORIENTED_EDGE('',*,*,#151,.T.);
#125=ORIENTED_EDGE('',*,*,#150,.T.);
#126=ORIENTED_EDGE('',*,*,#148,.F.);
#127=ORIENTED_EDGE('',*,*,#151,.F.);
#128=VERTEX_POINT('',#237);
#129=VERTEX_POINT('',#239);
#130=VERTEX_POINT('',#241);
#131=VERTEX_POINT('',#243);
#132=VERTEX_POINT('',#246);
#133=VERTEX_POINT('',#249);
#134=VERTEX_POINT('',#252);
#135=VERTEX_POINT('',#256);
#136=VERTEX_POINT('',#259);
#137=VERTEX_POINT('',#262);
#138=VERTEX_POINT('',#263);
#139=VERTEX_POINT('',#266);
#140=VERTEX_POINT('',#269);
#141=EDGE_CURVE('',#128,#128,#152,.T.);
#142=EDGE_CURVE('',#129,#129,#153,.T.);
#143=EDGE_CURVE('',#131,#131,#154,.T.);
#144=EDGE_CURVE('',#132,#132,#155,.T.);
#145=EDGE_CURVE('',#133,#133,#156,.T.);
#146=EDGE_CURVE('',#134,#134,#157,.T.);
#147=EDGE_CURVE('',#135,#135,#158,.T.);
#148=EDGE_CURVE('',#136,#136,#159,.T.);
#149=EDGE_CURVE('',#137,#137,#160,.T.);
#150=EDGE_CURVE('',#139,#139,#161,.T.);
#151=EDGE_CURVE('',#140,#140,#162,.T.);
#152=CIRCLE('',#164,1.25);
#153=CIRCLE('',#165,1.25);
#154=CIRCLE('',#167,0.75);
#155=CIRCLE('',#169,0.75);
#156=CIRCLE('',#171,1.75000000000001);
#157=CIRCLE('',#173,1.75);
#158=CIRCLE('',#176,1.65);
#159=CIRCLE('',#178,1.25);
#160=CIRCLE('',#180,0.8);
#161=CIRCLE('',#182,0.8);
#162=CIRCLE('',#184,1.24999999999999);
#163=AXIS2_PLACEMENT_3D('',#235,#187,#188);
#164=AXIS2_PLACEMENT_3D('',#236,#189,#190);
#165=AXIS2_PLACEMENT_3D('',#238,#191,#192);
#166=AXIS2_PLACEMENT_3D('',#240,#193,#194);
#167=AXIS2_PLACEMENT_3D('',#242,#195,#196);
#168=AXIS2_PLACEMENT_3D('',#244,#197,#198);
#169=AXIS2_PLACEMENT_3D('',#245,#199,#200);
#170=AXIS2_PLACEMENT_3D('',#247,#201,#202);
#171=AXIS2_PLACEMENT_3D('',#248,#203,#204);
#172=AXIS2_PLACEMENT_3D('',#250,#205,#206);
#173=AXIS2_PLACEMENT_3D('',#251,#207,#208);
#174=AXIS2_PLACEMENT_3D('',#253,#209,#210);
#175=AXIS2_PLACEMENT_3D('',#254,#211,#212);
#176=AXIS2_PLACEMENT_3D('',#255,#213,#214);
#177=AXIS2_PLACEMENT_3D('',#257,#215,#216);
#178=AXIS2_PLACEMENT_3D('',#258,#217,#218);
#179=AXIS2_PLACEMENT_3D('',#260,#219,#220);
#180=AXIS2_PLACEMENT_3D('',#261,#221,#222);
#181=AXIS2_PLACEMENT_3D('',#264,#223,#224);
#182=AXIS2_PLACEMENT_3D('',#265,#225,#226);
#183=AXIS2_PLACEMENT_3D('',#267,#227,#228);
#184=AXIS2_PLACEMENT_3D('',#268,#229,#230);
#185=AXIS2_PLACEMENT_3D('',#270,#231,#232);
#186=AXIS2_PLACEMENT_3D('',#271,#233,#234);
#187=DIRECTION('',(0.,0.,1.));
#188=DIRECTION('',(1.,0.,0.));
#189=DIRECTION('',(0.,-1.,6.75738582503036E-16));
#190=DIRECTION('',(0.,6.93889390390725E-16,1.));
#191=DIRECTION('',(0.,-1.,6.75738582503036E-16));
#192=DIRECTION('',(0.,-6.93889390390722E-16,-1.));
#193=DIRECTION('',(0.,-1.,6.75738582503036E-16));
#194=DIRECTION('',(0.,-6.93889390390725E-16,-1.));
#195=DIRECTION('',(0.,-1.,6.75738582503036E-16));
#196=DIRECTION('',(0.,1.15648231731787E-15,1.));
#197=DIRECTION('',(0.,1.,-6.75738582503036E-16));
#198=DIRECTION('',(0.,6.29395340563428E-16,1.));
#199=DIRECTION('',(0.,-1.,6.75738582503036E-16));
#200=DIRECTION('',(0.,0.,1.));
#201=DIRECTION('',(0.,-1.,6.75738582503036E-16));
#202=DIRECTION('',(0.,-1.15648231731787E-15,-1.));
#203=DIRECTION('',(0.,-1.,6.75738582503036E-16));
#204=DIRECTION('',(0.,-9.91270557701029E-16,-1.));
#205=DIRECTION('',(0.,1.,-6.75738582503036E-16));
#206=DIRECTION('',(0.,6.76542155630955E-16,1.));
#207=DIRECTION('',(0.,-1.,6.75738582503036E-16));
#208=DIRECTION('',(0.,-4.95635278850516E-16,-1.));
#209=DIRECTION('',(0.,-1.,6.75738582503036E-16));
#210=DIRECTION('',(0.,-6.75674793892966E-16,-1.));
#211=DIRECTION('',(0.,-1.,6.75738582503036E-16));
#212=DIRECTION('',(0.,-4.95635278850515E-16,-1.));
#213=DIRECTION('',(0.,1.,-6.75738582503036E-16));
#214=DIRECTION('',(0.,7.88510670898549E-16,1.));
#215=DIRECTION('',(0.,1.,-6.75738582503036E-16));
#216=DIRECTION('',(0.,6.75674793892966E-16,1.));
#217=DIRECTION('',(0.,1.,-6.75738582503036E-16));
#218=DIRECTION('',(0.,6.93889390390725E-16,1.));
#219=DIRECTION('',(0.,1.,-6.75738582503036E-16));
#220=DIRECTION('',(0.,1.13568104840718E-15,1.));
#221=DIRECTION('',(0.,-1.,6.75738582503036E-16));
#222=DIRECTION('',(0.,-6.7762635780344E-16,-1.));
#223=DIRECTION('',(0.,-1.,6.75738582503036E-16));
#224=DIRECTION('',(0.,-6.67089293834925E-16,-1.));
#225=DIRECTION('',(0.,1.,-6.75738582503036E-16));
#226=DIRECTION('',(0.,0.,-1.));
#227=DIRECTION('',(0.,-1.,6.75738582503036E-16));
#228=DIRECTION('',(0.,-1.0842021724855E-15,-1.));
#229=DIRECTION('',(0.,-1.,6.75738582503036E-16));
#230=DIRECTION('',(0.,0.,-1.));
#231=DIRECTION('',(0.,-1.,6.75738582503036E-16));
#232=DIRECTION('',(0.,-6.76542155630955E-16,-1.));
#233=DIRECTION('',(0.,-1.,6.75738582503036E-16));
#234=DIRECTION('',(0.,-6.93889390390725E-16,-1.));
#235=CARTESIAN_POINT('',(0.,0.,0.));
#236=CARTESIAN_POINT('',(0.,3.10428998930226,-4.14473983713817E-16));
#237=CARTESIAN_POINT('',(0.,3.10428998930226,1.25));
#238=CARTESIAN_POINT('',(0.,6.20428998930226,-2.50926358947323E-15));
#239=CARTESIAN_POINT('',(0.,6.20428998930226,-1.25));
#240=CARTESIAN_POINT('',(0.,4.13390271073986,-1.11022302462516E-15));
#241=CARTESIAN_POINT('',(0.,4.13390271073986,-9.75781955236954E-16));
#242=CARTESIAN_POINT('',(0.,4.58454817501053,-1.41474155186284E-15));
#243=CARTESIAN_POINT('',(0.,4.58454817501053,0.749999999999999));
#244=CARTESIAN_POINT('',(0.,4.40428998930226,-1.29293414096777E-15));
#245=CARTESIAN_POINT('',(0.,12.6042899893023,-6.83399051749266E-15));
#246=CARTESIAN_POINT('',(0.,12.6042899893023,0.749999999999993));
#247=CARTESIAN_POINT('',(0.,4.13390271073986,-1.11022302462516E-15));
#248=CARTESIAN_POINT('',(0.,12.6042899893023,-6.83399051749266E-15));
#249=CARTESIAN_POINT('',(0.,12.6042899893023,-1.75000000000001));
#250=CARTESIAN_POINT('',(0.,12.6042899893023,1.75));
#251=CARTESIAN_POINT('',(0.,6.20428998930226,-2.50926358947323E-15));
#252=CARTESIAN_POINT('',(0.,6.20428998930226,-1.75000000000001));
#253=CARTESIAN_POINT('',(0.,6.20428998930226,1.25));
#254=CARTESIAN_POINT('',(0.,4.13390271073986,-1.11022302462516E-15));
#255=CARTESIAN_POINT('',(0.,3.10428998930226,-4.14473983713817E-16));
#256=CARTESIAN_POINT('',(0.,3.10428998930226,1.65));
#257=CARTESIAN_POINT('',(0.,3.10428998930226,3.76713671303651E-31));
#258=CARTESIAN_POINT('',(0.,1.61146966627469,5.94282305300555E-16));
#259=CARTESIAN_POINT('',(0.,1.6114696662747,1.25));
#260=CARTESIAN_POINT('',(0.,3.10428998930226,-4.14473983713817E-16));
#261=CARTESIAN_POINT('',(0.,-0.480688495222051,2.00803429572252E-15));
#262=CARTESIAN_POINT('',(0.,-0.480688495222051,-0.799999999999998));
#263=CARTESIAN_POINT('',(0.,0.,1.68321453333566E-15));
#264=CARTESIAN_POINT('',(0.,0.,1.68321453333566E-15));
#265=CARTESIAN_POINT('',(0.,-8.99571001069774,7.76196286457292E-15));
#266=CARTESIAN_POINT('',(0.,-8.99571001069774,-0.799999999999992));
#267=CARTESIAN_POINT('',(0.,4.13390271073986,-1.11022302462516E-15));
#268=CARTESIAN_POINT('',(0.,-8.99571001069774,7.76196286457292E-15));
#269=CARTESIAN_POINT('',(0.,-8.99571001069774,-1.24999999999998));
#270=CARTESIAN_POINT('',(0.,-8.99571001069774,1.1));
#271=CARTESIAN_POINT('',(0.,4.13390271073986,-1.11022302462516E-15));
#272=MECHANICAL_DESIGN_GEOMETRIC_PRESENTATION_REPRESENTATION('',(#24),#273);
#273=(
GEOMETRIC_REPRESENTATION_CONTEXT(3)
GLOBAL_UNCERTAINTY_ASSIGNED_CONTEXT((#274))
GLOBAL_UNIT_ASSIGNED_CONTEXT((#280,#276,#275))
REPRESENTATION_CONTEXT('n 02 016 002x xnxc001-02',
'TOP_LEVEL_ASSEMBLY_PART')
);
#274=UNCERTAINTY_MEASURE_WITH_UNIT(LENGTH_MEASURE(2.E-5),#280,
'DISTANCE_ACCURACY_VALUE','Maximum Tolerance applied to model');
#275=(
NAMED_UNIT(*)
SI_UNIT($,.STERADIAN.)
SOLID_ANGLE_UNIT()
);
#276=(
CONVERSION_BASED_UNIT('DEGREE',#278)
NAMED_UNIT(#277)
PLANE_ANGLE_UNIT()
);
#277=DIMENSIONAL_EXPONENTS(0.,0.,0.,0.,0.,0.,0.);
#278=PLANE_ANGLE_MEASURE_WITH_UNIT(PLANE_ANGLE_MEASURE(0.0174532925),#279);
#279=(
NAMED_UNIT(*)
PLANE_ANGLE_UNIT()
SI_UNIT($,.RADIAN.)
);
#280=(
LENGTH_UNIT()
NAMED_UNIT(*)
SI_UNIT(.MILLI.,.METRE.)
);
ENDSEC;
END-ISO-10303-21;
