ISO-10303-21;
HEADER;
/* Generated by software containing ST-Developer
 * from STEP Tools, Inc. (www.steptools.com) 
 */
/* OPTION: using custom schema-name function */

FILE_DESCRIPTION(
/* description */ (''),
/* implementation_level */ '2;1');

FILE_NAME(
/* name */ 'n 01 016 002x xnxc001-02.stp',
/* time_stamp */ '2021-09-28T13:46:15+02:00',
/* author */ (''),
/* organization */ (''),
/* preprocessor_version */ 'ST-DEVELOPER v16.7',
/* originating_system */ 'SIEMENS PLM Software NX 12.0',
/* authorisation */ '');

FILE_SCHEMA (('AUTOMOTIVE_DESIGN { 1 0 10303 214 3 1 1 1 }'));
ENDSEC;

DATA;
#10=SHAPE_REPRESENTATION_RELATIONSHIP('None',
'relationship between n 01 016 002x xnxc001-02-None and n 01 016 002x 
xnxc001-02-None',#22,#11);
#11=ADVANCED_BREP_SHAPE_REPRESENTATION('n 01 016 002x xnxc001-02-None',
(#32),#269);
#12=SHAPE_DEFINITION_REPRESENTATION(#13,#22);
#13=PRODUCT_DEFINITION_SHAPE('','',#14);
#14=PRODUCT_DEFINITION(' ','',#16,#15);
#15=PRODUCT_DEFINITION_CONTEXT('part definition',#21,'design');
#16=PRODUCT_DEFINITION_FORMATION_WITH_SPECIFIED_SOURCE(' ',' ',#18,
 .NOT_KNOWN.);
#17=PRODUCT_RELATED_PRODUCT_CATEGORY('part','',(#18));
#18=PRODUCT('n 01 016 002x xnxc001-02','n 01 016 002x xnxc001-02',' ',(#19));
#19=PRODUCT_CONTEXT(' ',#21,'mechanical');
#20=APPLICATION_PROTOCOL_DEFINITION('international standard',
'automotive_design',2010,#21);
#21=APPLICATION_CONTEXT(
'core data for automotive mechanical design processes');
#22=SHAPE_REPRESENTATION('n 01 016 002x xnxc001-02-None',(#160),#269);
#23=PRESENTATION_LAYER_ASSIGNMENT('1','Layer 1',(#32));
#24=STYLED_ITEM('',(#25),#32);
#25=PRESENTATION_STYLE_ASSIGNMENT((#26));
#26=SURFACE_STYLE_USAGE(.BOTH.,#27);
#27=SURFACE_SIDE_STYLE('',(#28));
#28=SURFACE_STYLE_FILL_AREA(#29);
#29=FILL_AREA_STYLE('',(#30));
#30=FILL_AREA_STYLE_COLOUR('',#31);
#31=COLOUR_RGB('Medium Steel',0.596063172350652,0.666666666666667,0.686259250782025);
#32=MANIFOLD_SOLID_BREP('',#33);
#33=CLOSED_SHELL('',(#43,#44,#45,#46,#47,#48,#49,#50,#51,#52,#53,#54));
#34=SPHERICAL_SURFACE('',#178,0.8);
#35=FACE_OUTER_BOUND('',#97,.T.);
#36=CONICAL_SURFACE('',#169,2.77555756156286E-17,59.);
#37=CONICAL_SURFACE('',#175,1.06051177665153,15.);
#38=CONICAL_SURFACE('',#182,1.25,60.0000000000002);
#39=VERTEX_LOOP('',#131);
#40=PLANE('',#165);
#41=PLANE('',#172);
#42=PLANE('',#176);
#43=ADVANCED_FACE('',(#60,#61),#55,.T.);
#44=ADVANCED_FACE('',(#62,#63),#40,.F.);
#45=ADVANCED_FACE('',(#64,#65),#56,.T.);
#46=ADVANCED_FACE('',(#66,#67),#36,.F.);
#47=ADVANCED_FACE('',(#68,#69),#57,.F.);
#48=ADVANCED_FACE('',(#70,#71),#41,.F.);
#49=ADVANCED_FACE('',(#72,#73),#37,.T.);
#50=ADVANCED_FACE('',(#74,#75),#42,.T.);
#51=ADVANCED_FACE('',(#35),#34,.T.);
#52=ADVANCED_FACE('',(#76,#77),#58,.T.);
#53=ADVANCED_FACE('',(#78,#79),#38,.T.);
#54=ADVANCED_FACE('',(#80,#81),#59,.T.);
#55=CYLINDRICAL_SURFACE('',#163,1.6);
#56=CYLINDRICAL_SURFACE('',#167,1.25);
#57=CYLINDRICAL_SURFACE('',#171,0.75);
#58=CYLINDRICAL_SURFACE('',#180,0.8);
#59=CYLINDRICAL_SURFACE('',#183,1.25);
#60=FACE_BOUND('',#82,.T.);
#61=FACE_BOUND('',#83,.T.);
#62=FACE_BOUND('',#84,.T.);
#63=FACE_BOUND('',#85,.T.);
#64=FACE_BOUND('',#86,.T.);
#65=FACE_BOUND('',#87,.T.);
#66=FACE_BOUND('',#88,.T.);
#67=FACE_BOUND('',#39,.T.);
#68=FACE_BOUND('',#89,.T.);
#69=FACE_BOUND('',#90,.T.);
#70=FACE_BOUND('',#91,.T.);
#71=FACE_BOUND('',#92,.T.);
#72=FACE_BOUND('',#93,.T.);
#73=FACE_BOUND('',#94,.T.);
#74=FACE_BOUND('',#95,.T.);
#75=FACE_BOUND('',#96,.T.);
#76=FACE_BOUND('',#98,.T.);
#77=FACE_BOUND('',#99,.T.);
#78=FACE_BOUND('',#100,.T.);
#79=FACE_BOUND('',#101,.T.);
#80=FACE_BOUND('',#102,.T.);
#81=FACE_BOUND('',#103,.T.);
#82=EDGE_LOOP('',(#104));
#83=EDGE_LOOP('',(#105));
#84=EDGE_LOOP('',(#106));
#85=EDGE_LOOP('',(#107));
#86=EDGE_LOOP('',(#108));
#87=EDGE_LOOP('',(#109));
#88=EDGE_LOOP('',(#110));
#89=EDGE_LOOP('',(#111));
#90=EDGE_LOOP('',(#112));
#91=EDGE_LOOP('',(#113));
#92=EDGE_LOOP('',(#114));
#93=EDGE_LOOP('',(#115));
#94=EDGE_LOOP('',(#116));
#95=EDGE_LOOP('',(#117));
#96=EDGE_LOOP('',(#118));
#97=EDGE_LOOP('',(#119));
#98=EDGE_LOOP('',(#120));
#99=EDGE_LOOP('',(#121));
#100=EDGE_LOOP('',(#122));
#101=EDGE_LOOP('',(#123));
#102=EDGE_LOOP('',(#124));
#103=EDGE_LOOP('',(#125));
#104=ORIENTED_EDGE('',*,*,#138,.F.);
#105=ORIENTED_EDGE('',*,*,#139,.T.);
#106=ORIENTED_EDGE('',*,*,#140,.F.);
#107=ORIENTED_EDGE('',*,*,#138,.T.);
#108=ORIENTED_EDGE('',*,*,#141,.T.);
#109=ORIENTED_EDGE('',*,*,#140,.T.);
#110=ORIENTED_EDGE('',*,*,#142,.F.);
#111=ORIENTED_EDGE('',*,*,#142,.T.);
#112=ORIENTED_EDGE('',*,*,#143,.F.);
#113=ORIENTED_EDGE('',*,*,#139,.F.);
#114=ORIENTED_EDGE('',*,*,#143,.T.);
#115=ORIENTED_EDGE('',*,*,#144,.T.);
#116=ORIENTED_EDGE('',*,*,#145,.F.);
#117=ORIENTED_EDGE('',*,*,#141,.F.);
#118=ORIENTED_EDGE('',*,*,#144,.F.);
#119=ORIENTED_EDGE('',*,*,#146,.F.);
#120=ORIENTED_EDGE('',*,*,#146,.T.);
#121=ORIENTED_EDGE('',*,*,#147,.T.);
#122=ORIENTED_EDGE('',*,*,#147,.F.);
#123=ORIENTED_EDGE('',*,*,#148,.T.);
#124=ORIENTED_EDGE('',*,*,#145,.T.);
#125=ORIENTED_EDGE('',*,*,#148,.F.);
#126=VERTEX_POINT('',#234);
#127=VERTEX_POINT('',#236);
#128=VERTEX_POINT('',#239);
#129=VERTEX_POINT('',#242);
#130=VERTEX_POINT('',#245);
#131=VERTEX_POINT('',#246);
#132=VERTEX_POINT('',#249);
#133=VERTEX_POINT('',#253);
#134=VERTEX_POINT('',#255);
#135=VERTEX_POINT('',#259);
#136=VERTEX_POINT('',#262);
#137=VERTEX_POINT('',#265);
#138=EDGE_CURVE('',#126,#126,#149,.T.);
#139=EDGE_CURVE('',#127,#127,#150,.T.);
#140=EDGE_CURVE('',#128,#128,#151,.T.);
#141=EDGE_CURVE('',#129,#129,#152,.T.);
#142=EDGE_CURVE('',#130,#130,#153,.T.);
#143=EDGE_CURVE('',#132,#132,#154,.T.);
#144=EDGE_CURVE('',#133,#133,#155,.T.);
#145=EDGE_CURVE('',#134,#134,#156,.T.);
#146=EDGE_CURVE('',#135,#135,#157,.T.);
#147=EDGE_CURVE('',#136,#136,#158,.T.);
#148=EDGE_CURVE('',#137,#137,#159,.T.);
#149=CIRCLE('',#161,1.6);
#150=CIRCLE('',#162,1.6);
#151=CIRCLE('',#164,1.25);
#152=CIRCLE('',#166,1.25);
#153=CIRCLE('',#168,0.75);
#154=CIRCLE('',#170,0.75);
#155=CIRCLE('',#173,1.65);
#156=CIRCLE('',#174,1.25);
#157=CIRCLE('',#177,0.8);
#158=CIRCLE('',#179,0.8);
#159=CIRCLE('',#181,1.25);
#160=AXIS2_PLACEMENT_3D('',#232,#184,#185);
#161=AXIS2_PLACEMENT_3D('',#233,#186,#187);
#162=AXIS2_PLACEMENT_3D('',#235,#188,#189);
#163=AXIS2_PLACEMENT_3D('',#237,#190,#191);
#164=AXIS2_PLACEMENT_3D('',#238,#192,#193);
#165=AXIS2_PLACEMENT_3D('',#240,#194,#195);
#166=AXIS2_PLACEMENT_3D('',#241,#196,#197);
#167=AXIS2_PLACEMENT_3D('',#243,#198,#199);
#168=AXIS2_PLACEMENT_3D('',#244,#200,#201);
#169=AXIS2_PLACEMENT_3D('',#247,#202,#203);
#170=AXIS2_PLACEMENT_3D('',#248,#204,#205);
#171=AXIS2_PLACEMENT_3D('',#250,#206,#207);
#172=AXIS2_PLACEMENT_3D('',#251,#208,#209);
#173=AXIS2_PLACEMENT_3D('',#252,#210,#211);
#174=AXIS2_PLACEMENT_3D('',#254,#212,#213);
#175=AXIS2_PLACEMENT_3D('',#256,#214,#215);
#176=AXIS2_PLACEMENT_3D('',#257,#216,#217);
#177=AXIS2_PLACEMENT_3D('',#258,#218,#219);
#178=AXIS2_PLACEMENT_3D('',#260,#220,#221);
#179=AXIS2_PLACEMENT_3D('',#261,#222,#223);
#180=AXIS2_PLACEMENT_3D('',#263,#224,#225);
#181=AXIS2_PLACEMENT_3D('',#264,#226,#227);
#182=AXIS2_PLACEMENT_3D('',#266,#228,#229);
#183=AXIS2_PLACEMENT_3D('',#267,#230,#231);
#184=DIRECTION('',(0.,0.,1.));
#185=DIRECTION('',(1.,0.,0.));
#186=DIRECTION('',(0.,-1.,-1.22577404207005E-16));
#187=DIRECTION('',(0.,0.,-1.));
#188=DIRECTION('',(0.,-1.,-1.22577404207005E-16));
#189=DIRECTION('',(0.,0.,-1.));
#190=DIRECTION('',(0.,-1.,-1.22577404207005E-16));
#191=DIRECTION('',(0.,0.,-1.));
#192=DIRECTION('',(0.,-1.,-1.22577404207005E-16));
#193=DIRECTION('',(0.,0.,-1.));
#194=DIRECTION('',(0.,1.,1.22577404207005E-16));
#195=DIRECTION('',(0.,-1.21430643318376E-16,1.));
#196=DIRECTION('',(0.,1.,0.));
#197=DIRECTION('',(0.,0.,1.));
#198=DIRECTION('',(0.,-1.,-1.22577404207005E-16));
#199=DIRECTION('',(0.,0.,-1.));
#200=DIRECTION('',(0.,-1.,-1.22577404207005E-16));
#201=DIRECTION('',(0.,0.,1.));
#202=DIRECTION('',(0.,1.,1.22577404207005E-16));
#203=DIRECTION('',(0.,-1.3133320472375E-16,1.));
#204=DIRECTION('',(0.,-1.,-1.22577404207005E-16));
#205=DIRECTION('',(0.,0.,-1.));
#206=DIRECTION('',(0.,-1.,-1.22577404207005E-16));
#207=DIRECTION('',(0.,0.,-1.));
#208=DIRECTION('',(0.,-1.,-1.22577404207005E-16));
#209=DIRECTION('',(0.,1.21430643318376E-16,-1.));
#210=DIRECTION('',(0.,-1.,0.));
#211=DIRECTION('',(0.,0.,-1.));
#212=DIRECTION('',(0.,-1.,0.));
#213=DIRECTION('',(0.,0.,1.));
#214=DIRECTION('',(0.,1.,0.));
#215=DIRECTION('',(0.,-1.8055949866342E-16,1.));
#216=DIRECTION('',(0.,1.,0.));
#217=DIRECTION('',(0.,0.,1.));
#218=DIRECTION('',(0.,1.,1.22577404207005E-16));
#219=DIRECTION('',(0.,1.35525271560688E-16,-1.));
#220=DIRECTION('',(0.,-1.,-6.12323399573677E-17));
#221=DIRECTION('',(0.,0.,-1.));
#222=DIRECTION('',(0.,-1.,-1.22577404207005E-16));
#223=DIRECTION('',(0.,0.,-1.));
#224=DIRECTION('',(0.,-1.,-1.22577404207005E-16));
#225=DIRECTION('',(0.,0.,-1.));
#226=DIRECTION('',(0.,-1.,-1.22577404207005E-16));
#227=DIRECTION('',(0.,0.,-1.));
#228=DIRECTION('',(0.,1.,1.22577404207005E-16));
#229=DIRECTION('',(0.,-8.20673044222559E-17,1.));
#230=DIRECTION('',(0.,-1.,-1.22577404207005E-16));
#231=DIRECTION('',(0.,0.,-1.));
#232=CARTESIAN_POINT('',(0.,0.,0.));
#233=CARTESIAN_POINT('',(0.,18.,2.20639327572609E-15));
#234=CARTESIAN_POINT('',(0.,18.,-1.6));
#235=CARTESIAN_POINT('',(0.,25.,3.06443510517513E-15));
#236=CARTESIAN_POINT('',(0.,25.,-1.6));
#237=CARTESIAN_POINT('',(0.,16.5296127214376,2.02615701994091E-15));
#238=CARTESIAN_POINT('',(0.,18.,2.20639327572609E-15));
#239=CARTESIAN_POINT('',(0.,18.,-1.25));
#240=CARTESIAN_POINT('',(0.,18.,1.6));
#241=CARTESIAN_POINT('',(0.,15.8098076211353,1.9379251792109E-15));
#242=CARTESIAN_POINT('',(0.,15.8098076211353,1.25));
#243=CARTESIAN_POINT('',(0.,16.5296127214376,2.02615701994091E-15));
#244=CARTESIAN_POINT('',(0.,16.9802581857083,2.08139597116887E-15));
#245=CARTESIAN_POINT('',(0.,16.9802581857083,0.750000000000002));
#246=CARTESIAN_POINT('',(0.,16.5296127214376,1.99840144432528E-15));
#247=CARTESIAN_POINT('',(0.,16.5296127214376,2.02615701994091E-15));
#248=CARTESIAN_POINT('',(0.,25.,3.06443510517513E-15));
#249=CARTESIAN_POINT('',(0.,25.,-0.749999999999997));
#250=CARTESIAN_POINT('',(0.,16.5296127214376,2.02615701994091E-15));
#251=CARTESIAN_POINT('',(0.,25.,1.45));
#252=CARTESIAN_POINT('',(0.,15.8098076211353,1.64986827932443E-15));
#253=CARTESIAN_POINT('',(0.,15.8098076211353,-1.65));
#254=CARTESIAN_POINT('',(0.,14.3169872981078,1.64986827932443E-15));
#255=CARTESIAN_POINT('',(0.,14.3169872981078,1.25));
#256=CARTESIAN_POINT('',(0.,13.6098076211353,1.64986827932443E-15));
#257=CARTESIAN_POINT('',(1.65,15.8098076211353,0.));
#258=CARTESIAN_POINT('',(0.,0.800000000000002,9.80619233656043E-17));
#259=CARTESIAN_POINT('',(0.,0.800000000000002,-0.799999999999999));
#260=CARTESIAN_POINT('',(0.,0.800000000000002,9.80619233656043E-17));
#261=CARTESIAN_POINT('',(0.,13.2,1.61802173553247E-15));
#262=CARTESIAN_POINT('',(0.,13.2,-0.799999999999998));
#263=CARTESIAN_POINT('',(0.,16.5296127214376,2.02615701994091E-15));
#264=CARTESIAN_POINT('',(0.,13.4598076211353,1.64986827932443E-15));
#265=CARTESIAN_POINT('',(0.,13.4598076211353,-1.25));
#266=CARTESIAN_POINT('',(0.,13.4598076211353,1.64986827932443E-15));
#267=CARTESIAN_POINT('',(0.,16.5296127214376,2.02615701994091E-15));
#268=MECHANICAL_DESIGN_GEOMETRIC_PRESENTATION_REPRESENTATION('',(#24),#269);
#269=(
GEOMETRIC_REPRESENTATION_CONTEXT(3)
GLOBAL_UNCERTAINTY_ASSIGNED_CONTEXT((#270))
GLOBAL_UNIT_ASSIGNED_CONTEXT((#276,#272,#271))
REPRESENTATION_CONTEXT('n 01 016 002x xnxc001-02',
'TOP_LEVEL_ASSEMBLY_PART')
);
#270=UNCERTAINTY_MEASURE_WITH_UNIT(LENGTH_MEASURE(2.E-5),#276,
'DISTANCE_ACCURACY_VALUE','Maximum Tolerance applied to model');
#271=(
NAMED_UNIT(*)
SI_UNIT($,.STERADIAN.)
SOLID_ANGLE_UNIT()
);
#272=(
CONVERSION_BASED_UNIT('DEGREE',#274)
NAMED_UNIT(#273)
PLANE_ANGLE_UNIT()
);
#273=DIMENSIONAL_EXPONENTS(0.,0.,0.,0.,0.,0.,0.);
#274=PLANE_ANGLE_MEASURE_WITH_UNIT(PLANE_ANGLE_MEASURE(0.0174532925),#275);
#275=(
NAMED_UNIT(*)
PLANE_ANGLE_UNIT()
SI_UNIT($,.RADIAN.)
);
#276=(
LENGTH_UNIT()
NAMED_UNIT(*)
SI_UNIT(.MILLI.,.METRE.)
);
ENDSEC;
END-ISO-10303-21;
