ISO-10303-21;
HEADER;
/* Generated by software containing ST-Developer
 * from STEP Tools, Inc. (www.steptools.com) 
 */
/* OPTION: using custom schema-name function */

FILE_DESCRIPTION(
/* description */ (''),
/* implementation_level */ '2;1');

FILE_NAME(
/* name */ 'n 02 025 0035 x.stp',
/* time_stamp */ '2018-09-25T11:36:51+02:00',
/* author */ (''),
/* organization */ (''),
/* preprocessor_version */ 'ST-DEVELOPER v16',
/* originating_system */ 'SIEMENS PLM Software NX 11.0',
/* authorisation */ '');

FILE_SCHEMA (('AUTOMOTIVE_DESIGN { 1 0 10303 214 3 1 1 1 }'));
ENDSEC;

DATA;
#10=SHAPE_REPRESENTATION_RELATIONSHIP('None',
'relationship between n 02 025 0035nxm001-02-None and n 02 025 0035nxm
001-02-None',#22,#11);
#11=ADVANCED_BREP_SHAPE_REPRESENTATION('n 02 025 0035nxm001-02-None',(#32),
#289);
#12=SHAPE_DEFINITION_REPRESENTATION(#13,#22);
#13=PRODUCT_DEFINITION_SHAPE('','',#14);
#14=PRODUCT_DEFINITION(' ','',#16,#15);
#15=PRODUCT_DEFINITION_CONTEXT('part definition',#21,'design');
#16=PRODUCT_DEFINITION_FORMATION_WITH_SPECIFIED_SOURCE(' ',' ',#18,
 .NOT_KNOWN.);
#17=PRODUCT_RELATED_PRODUCT_CATEGORY('part','',(#18));
#18=PRODUCT('n 02 025 0035nxm001-02','n 02 025 0035nxm001-02',' ',(#19));
#19=PRODUCT_CONTEXT(' ',#21,'mechanical');
#20=APPLICATION_PROTOCOL_DEFINITION('international standard',
'automotive_design',2010,#21);
#21=APPLICATION_CONTEXT(
'core data for automotive mechanical design processes');
#22=SHAPE_REPRESENTATION('n 02 025 0035nxm001-02-None',(#171),#289);
#23=PRESENTATION_LAYER_ASSIGNMENT('1','Layer 1',(#32));
#24=STYLED_ITEM('',(#25),#32);
#25=PRESENTATION_STYLE_ASSIGNMENT((#26));
#26=SURFACE_STYLE_USAGE(.BOTH.,#27);
#27=SURFACE_SIDE_STYLE('',(#28));
#28=SURFACE_STYLE_FILL_AREA(#29);
#29=FILL_AREA_STYLE('',(#30));
#30=FILL_AREA_STYLE_COLOUR('',#31);
#31=COLOUR_RGB('Mittleres Stahlblau',0.596063172350652,0.666666666666667,
0.686259250782025);
#32=MANIFOLD_SOLID_BREP('',#33);
#33=CLOSED_SHELL('',(#45,#46,#47,#48,#49,#50,#51,#52,#53,#54,#55,#56,#57));
#34=FACE_OUTER_BOUND('',#107,.T.);
#35=TOROIDAL_SURFACE('',#193,1.8,0.500000000000001);
#36=PLANE('',#189);
#37=PLANE('',#195);
#38=CONICAL_SURFACE('',#179,0.,70.0000000000001);
#39=CONICAL_SURFACE('',#183,1.48334329335407,8.54651923025997);
#40=CONICAL_SURFACE('',#185,1.21928517133877,21.45348076974);
#41=CONICAL_SURFACE('',#187,1.48702959702306,81.45348076974);
#42=CONICAL_SURFACE('',#188,1.73425347924874,8.54651923025999);
#43=CONICAL_SURFACE('',#192,2.25,60.);
#44=VERTEX_LOOP('',#139);
#45=ADVANCED_FACE('',(#62,#63),#58,.T.);
#46=ADVANCED_FACE('',(#64,#65),#59,.T.);
#47=ADVANCED_FACE('',(#66,#67),#38,.F.);
#48=ADVANCED_FACE('',(#68,#69),#60,.F.);
#49=ADVANCED_FACE('',(#70,#71),#39,.F.);
#50=ADVANCED_FACE('',(#72,#73),#40,.F.);
#51=ADVANCED_FACE('',(#74,#75),#41,.F.);
#52=ADVANCED_FACE('',(#76,#77),#42,.T.);
#53=ADVANCED_FACE('',(#78,#79),#36,.F.);
#54=ADVANCED_FACE('',(#80,#81),#43,.T.);
#55=ADVANCED_FACE('',(#82,#83),#35,.F.);
#56=ADVANCED_FACE('',(#34),#37,.T.);
#57=ADVANCED_FACE('',(#84,#85),#61,.T.);
#58=CYLINDRICAL_SURFACE('',#174,1.3);
#59=CYLINDRICAL_SURFACE('',#177,2.25);
#60=CYLINDRICAL_SURFACE('',#181,1.5);
#61=CYLINDRICAL_SURFACE('',#196,2.25);
#62=FACE_BOUND('',#86,.T.);
#63=FACE_BOUND('',#87,.T.);
#64=FACE_BOUND('',#88,.T.);
#65=FACE_BOUND('',#89,.T.);
#66=FACE_BOUND('',#90,.T.);
#67=FACE_BOUND('',#44,.T.);
#68=FACE_BOUND('',#91,.T.);
#69=FACE_BOUND('',#92,.T.);
#70=FACE_BOUND('',#93,.T.);
#71=FACE_BOUND('',#94,.T.);
#72=FACE_BOUND('',#95,.T.);
#73=FACE_BOUND('',#96,.T.);
#74=FACE_BOUND('',#97,.T.);
#75=FACE_BOUND('',#98,.T.);
#76=FACE_BOUND('',#99,.T.);
#77=FACE_BOUND('',#100,.T.);
#78=FACE_BOUND('',#101,.T.);
#79=FACE_BOUND('',#102,.T.);
#80=FACE_BOUND('',#103,.T.);
#81=FACE_BOUND('',#104,.T.);
#82=FACE_BOUND('',#105,.T.);
#83=FACE_BOUND('',#106,.T.);
#84=FACE_BOUND('',#108,.T.);
#85=FACE_BOUND('',#109,.T.);
#86=EDGE_LOOP('',(#110));
#87=EDGE_LOOP('',(#111));
#88=EDGE_LOOP('',(#112));
#89=EDGE_LOOP('',(#113));
#90=EDGE_LOOP('',(#114));
#91=EDGE_LOOP('',(#115));
#92=EDGE_LOOP('',(#116));
#93=EDGE_LOOP('',(#117));
#94=EDGE_LOOP('',(#118));
#95=EDGE_LOOP('',(#119));
#96=EDGE_LOOP('',(#120));
#97=EDGE_LOOP('',(#121));
#98=EDGE_LOOP('',(#122));
#99=EDGE_LOOP('',(#123));
#100=EDGE_LOOP('',(#124));
#101=EDGE_LOOP('',(#125));
#102=EDGE_LOOP('',(#126));
#103=EDGE_LOOP('',(#127));
#104=EDGE_LOOP('',(#128));
#105=EDGE_LOOP('',(#129));
#106=EDGE_LOOP('',(#130));
#107=EDGE_LOOP('',(#131));
#108=EDGE_LOOP('',(#132));
#109=EDGE_LOOP('',(#133));
#110=ORIENTED_EDGE('',*,*,#147,.T.);
#111=ORIENTED_EDGE('',*,*,#148,.F.);
#112=ORIENTED_EDGE('',*,*,#149,.T.);
#113=ORIENTED_EDGE('',*,*,#150,.F.);
#114=ORIENTED_EDGE('',*,*,#151,.T.);
#115=ORIENTED_EDGE('',*,*,#152,.T.);
#116=ORIENTED_EDGE('',*,*,#151,.F.);
#117=ORIENTED_EDGE('',*,*,#153,.T.);
#118=ORIENTED_EDGE('',*,*,#152,.F.);
#119=ORIENTED_EDGE('',*,*,#154,.T.);
#120=ORIENTED_EDGE('',*,*,#153,.F.);
#121=ORIENTED_EDGE('',*,*,#155,.T.);
#122=ORIENTED_EDGE('',*,*,#154,.F.);
#123=ORIENTED_EDGE('',*,*,#150,.T.);
#124=ORIENTED_EDGE('',*,*,#155,.F.);
#125=ORIENTED_EDGE('',*,*,#149,.F.);
#126=ORIENTED_EDGE('',*,*,#148,.T.);
#127=ORIENTED_EDGE('',*,*,#156,.F.);
#128=ORIENTED_EDGE('',*,*,#157,.T.);
#129=ORIENTED_EDGE('',*,*,#147,.F.);
#130=ORIENTED_EDGE('',*,*,#156,.T.);
#131=ORIENTED_EDGE('',*,*,#158,.T.);
#132=ORIENTED_EDGE('',*,*,#157,.F.);
#133=ORIENTED_EDGE('',*,*,#158,.F.);
#134=VERTEX_POINT('',#251);
#135=VERTEX_POINT('',#253);
#136=VERTEX_POINT('',#256);
#137=VERTEX_POINT('',#258);
#138=VERTEX_POINT('',#261);
#139=VERTEX_POINT('',#262);
#140=VERTEX_POINT('',#265);
#141=VERTEX_POINT('',#268);
#142=VERTEX_POINT('',#271);
#143=VERTEX_POINT('',#274);
#144=VERTEX_POINT('',#279);
#145=VERTEX_POINT('',#281);
#146=VERTEX_POINT('',#285);
#147=EDGE_CURVE('',#134,#134,#159,.T.);
#148=EDGE_CURVE('',#135,#135,#160,.T.);
#149=EDGE_CURVE('',#136,#136,#161,.T.);
#150=EDGE_CURVE('',#137,#137,#162,.T.);
#151=EDGE_CURVE('',#138,#138,#163,.T.);
#152=EDGE_CURVE('',#140,#140,#164,.T.);
#153=EDGE_CURVE('',#141,#141,#165,.T.);
#154=EDGE_CURVE('',#142,#142,#166,.T.);
#155=EDGE_CURVE('',#143,#143,#167,.T.);
#156=EDGE_CURVE('',#144,#144,#168,.T.);
#157=EDGE_CURVE('',#145,#145,#169,.T.);
#158=EDGE_CURVE('',#146,#146,#170,.T.);
#159=CIRCLE('',#172,1.3);
#160=CIRCLE('',#173,1.3);
#161=CIRCLE('',#175,2.25);
#162=CIRCLE('',#176,2.25);
#163=CIRCLE('',#178,1.5);
#164=CIRCLE('',#180,1.5);
#165=CIRCLE('',#182,1.12128390981664);
#166=CIRCLE('',#184,1.48702959702306);
#167=CIRCLE('',#186,1.73425347924874);
#168=CIRCLE('',#190,1.55);
#169=CIRCLE('',#191,2.25);
#170=CIRCLE('',#194,2.25);
#171=AXIS2_PLACEMENT_3D('',#249,#197,#198);
#172=AXIS2_PLACEMENT_3D('',#250,#199,#200);
#173=AXIS2_PLACEMENT_3D('',#252,#201,#202);
#174=AXIS2_PLACEMENT_3D('',#254,#203,#204);
#175=AXIS2_PLACEMENT_3D('',#255,#205,#206);
#176=AXIS2_PLACEMENT_3D('',#257,#207,#208);
#177=AXIS2_PLACEMENT_3D('',#259,#209,#210);
#178=AXIS2_PLACEMENT_3D('',#260,#211,#212);
#179=AXIS2_PLACEMENT_3D('',#263,#213,#214);
#180=AXIS2_PLACEMENT_3D('',#264,#215,#216);
#181=AXIS2_PLACEMENT_3D('',#266,#217,#218);
#182=AXIS2_PLACEMENT_3D('',#267,#219,#220);
#183=AXIS2_PLACEMENT_3D('',#269,#221,#222);
#184=AXIS2_PLACEMENT_3D('',#270,#223,#224);
#185=AXIS2_PLACEMENT_3D('',#272,#225,#226);
#186=AXIS2_PLACEMENT_3D('',#273,#227,#228);
#187=AXIS2_PLACEMENT_3D('',#275,#229,#230);
#188=AXIS2_PLACEMENT_3D('',#276,#231,#232);
#189=AXIS2_PLACEMENT_3D('',#277,#233,#234);
#190=AXIS2_PLACEMENT_3D('',#278,#235,#236);
#191=AXIS2_PLACEMENT_3D('',#280,#237,#238);
#192=AXIS2_PLACEMENT_3D('',#282,#239,#240);
#193=AXIS2_PLACEMENT_3D('',#283,#241,#242);
#194=AXIS2_PLACEMENT_3D('',#284,#243,#244);
#195=AXIS2_PLACEMENT_3D('',#286,#245,#246);
#196=AXIS2_PLACEMENT_3D('',#287,#247,#248);
#197=DIRECTION('',(0.,0.,1.));
#198=DIRECTION('',(1.,0.,0.));
#199=DIRECTION('',(0.,0.,-1.));
#200=DIRECTION('',(-1.,0.,0.));
#201=DIRECTION('',(0.,0.,-1.));
#202=DIRECTION('',(-1.,0.,0.));
#203=DIRECTION('',(0.,0.,-1.));
#204=DIRECTION('',(-1.,0.,0.));
#205=DIRECTION('',(0.,0.,-1.));
#206=DIRECTION('',(-1.,0.,0.));
#207=DIRECTION('',(0.,0.,-1.));
#208=DIRECTION('',(1.,0.,0.));
#209=DIRECTION('',(0.,0.,-1.));
#210=DIRECTION('',(-1.,0.,0.));
#211=DIRECTION('',(0.,0.,-1.));
#212=DIRECTION('',(-1.,0.,0.));
#213=DIRECTION('',(0.,0.,-1.));
#214=DIRECTION('',(-1.,0.,-3.15693854969179E-17));
#215=DIRECTION('',(0.,0.,-1.));
#216=DIRECTION('',(1.,0.,0.));
#217=DIRECTION('',(0.,0.,-1.));
#218=DIRECTION('',(-1.,0.,0.));
#219=DIRECTION('',(0.,0.,-1.));
#220=DIRECTION('',(-1.,0.,0.));
#221=DIRECTION('',(0.,0.,1.));
#222=DIRECTION('',(1.,0.,-3.31480569136699E-16));
#223=DIRECTION('',(0.,0.,-1.));
#224=DIRECTION('',(-1.,0.,0.));
#225=DIRECTION('',(0.,0.,-1.));
#226=DIRECTION('',(-1.,0.,-1.89230319499337E-16));
#227=DIRECTION('',(0.,0.,-1.));
#228=DIRECTION('',(-1.,0.,0.));
#229=DIRECTION('',(0.,0.,-1.));
#230=DIRECTION('',(-1.,0.,-6.25531186742186E-18));
#231=DIRECTION('',(0.,0.,1.));
#232=DIRECTION('',(1.,0.,-1.14114979776641E-17));
#233=DIRECTION('',(0.,0.,-1.));
#234=DIRECTION('',(-1.,0.,0.));
#235=DIRECTION('',(0.,0.,-1.));
#236=DIRECTION('',(-1.,0.,0.));
#237=DIRECTION('',(0.,0.,-1.));
#238=DIRECTION('',(-1.,0.,0.));
#239=DIRECTION('',(0.,0.,1.));
#240=DIRECTION('',(1.,0.,5.9014378956614E-17));
#241=DIRECTION('',(0.,0.,-1.));
#242=DIRECTION('',(-1.,0.,0.));
#243=DIRECTION('',(0.,0.,1.));
#244=DIRECTION('',(1.,0.,0.));
#245=DIRECTION('',(0.,0.,1.));
#246=DIRECTION('',(1.,0.,0.));
#247=DIRECTION('',(0.,0.,-1.));
#248=DIRECTION('',(-1.,0.,0.));
#249=CARTESIAN_POINT('',(0.,0.,0.));
#250=CARTESIAN_POINT('',(-5.66369695085546E-16,0.,4.16698729810778));
#251=CARTESIAN_POINT('',(-1.3,0.,4.16698729810778));
#252=CARTESIAN_POINT('',(-5.66369695085546E-16,0.,0.));
#253=CARTESIAN_POINT('',(-1.3,0.,0.));
#254=CARTESIAN_POINT('',(-5.66369695085546E-16,0.,7.2));
#255=CARTESIAN_POINT('',(-5.66369695085546E-16,0.,0.));
#256=CARTESIAN_POINT('',(-2.25,0.,0.));
#257=CARTESIAN_POINT('',(0.,0.,-11.668122357551));
#258=CARTESIAN_POINT('',(2.25,0.,-11.668122357551));
#259=CARTESIAN_POINT('',(0.,0.,7.2));
#260=CARTESIAN_POINT('',(0.,0.,-4.9));
#261=CARTESIAN_POINT('',(-1.5,0.,-4.9));
#262=CARTESIAN_POINT('',(0.,0.,-4.3540446486007));
#263=CARTESIAN_POINT('',(0.,0.,-4.3540446486007));
#264=CARTESIAN_POINT('',(0.,0.,-11.6120815717007));
#265=CARTESIAN_POINT('',(1.5,0.,-11.6120815717007));
#266=CARTESIAN_POINT('',(0.,0.,0.));
#267=CARTESIAN_POINT('',(0.,0.,-14.1321320818675));
#268=CARTESIAN_POINT('',(-1.12128390981664,0.,-14.1321320818675));
#269=CARTESIAN_POINT('',(0.,0.,-11.7229185368279));
#270=CARTESIAN_POINT('',(0.,0.,-15.0628469105287));
#271=CARTESIAN_POINT('',(-1.48702959702306,0.,-15.0628469105287));
#272=CARTESIAN_POINT('',(0.,0.,-14.3815163685909));
#273=CARTESIAN_POINT('',(0.,0.,-15.1));
#274=CARTESIAN_POINT('',(-1.73425347924874,0.,-15.1));
#275=CARTESIAN_POINT('',(0.,0.,-15.0628469105287));
#276=CARTESIAN_POINT('',(0.,0.,-15.1));
#277=CARTESIAN_POINT('',(1.3,0.,0.));
#278=CARTESIAN_POINT('',(-5.66369695085546E-16,0.,4.6));
#279=CARTESIAN_POINT('',(-1.55,0.,4.6));
#280=CARTESIAN_POINT('',(-5.66369695085546E-16,0.,5.00414518843274));
#281=CARTESIAN_POINT('',(-2.25,0.,5.00414518843274));
#282=CARTESIAN_POINT('',(-5.66369695085546E-16,0.,5.00414518843274));
#283=CARTESIAN_POINT('',(-6.50521303491303E-16,0.,4.16698729810778));
#284=CARTESIAN_POINT('',(0.,0.,7.2));
#285=CARTESIAN_POINT('',(2.25,0.,7.2));
#286=CARTESIAN_POINT('',(0.,0.,7.2));
#287=CARTESIAN_POINT('',(0.,0.,7.2));
#288=MECHANICAL_DESIGN_GEOMETRIC_PRESENTATION_REPRESENTATION('',(#24),#289);
#289=(
GEOMETRIC_REPRESENTATION_CONTEXT(3)
GLOBAL_UNCERTAINTY_ASSIGNED_CONTEXT((#290))
GLOBAL_UNIT_ASSIGNED_CONTEXT((#296,#292,#291))
REPRESENTATION_CONTEXT('n 02 025 0035 x','TOP_LEVEL_ASSEMBLY_PART')
);
#290=UNCERTAINTY_MEASURE_WITH_UNIT(LENGTH_MEASURE(2.E-5),#296,
'DISTANCE_ACCURACY_VALUE','Maximum Tolerance applied to model');
#291=(
NAMED_UNIT(*)
SI_UNIT($,.STERADIAN.)
SOLID_ANGLE_UNIT()
);
#292=(
CONVERSION_BASED_UNIT('DEGREE',#294)
NAMED_UNIT(#293)
PLANE_ANGLE_UNIT()
);
#293=DIMENSIONAL_EXPONENTS(0.,0.,0.,0.,0.,0.,0.);
#294=PLANE_ANGLE_MEASURE_WITH_UNIT(PLANE_ANGLE_MEASURE(0.0174532925),#295);
#295=(
NAMED_UNIT(*)
PLANE_ANGLE_UNIT()
SI_UNIT($,.RADIAN.)
);
#296=(
LENGTH_UNIT()
NAMED_UNIT(*)
SI_UNIT(.MILLI.,.METRE.)
);
ENDSEC;
END-ISO-10303-21;
