ISO-10303-21;
HEADER;
/* Generated by software containing ST-Developer
 * from STEP Tools, Inc. (www.steptools.com) 
 */
/* OPTION: using custom schema-name function */

FILE_DESCRIPTION(
/* description */ (''),
/* implementation_level */ '2;1');

FILE_NAME(
/* name */ 'n 02 025 0036 x.stp',
/* time_stamp */ '2018-09-25T11:35:08+02:00',
/* author */ (''),
/* organization */ (''),
/* preprocessor_version */ 'ST-DEVELOPER v16',
/* originating_system */ 'SIEMENS PLM Software NX 11.0',
/* authorisation */ '');

FILE_SCHEMA (('AUTOMOTIVE_DESIGN { 1 0 10303 214 3 1 1 1 }'));
ENDSEC;

DATA;
#10=SHAPE_REPRESENTATION_RELATIONSHIP('None',
'relationship between n 02 025 0036nxm001-02-None and n 02 025 0036nxm
001-02-None',#22,#11);
#11=ADVANCED_BREP_SHAPE_REPRESENTATION('n 02 025 0036nxm001-02-None',(#32),
#349);
#12=SHAPE_DEFINITION_REPRESENTATION(#13,#22);
#13=PRODUCT_DEFINITION_SHAPE('','',#14);
#14=PRODUCT_DEFINITION(' ','',#16,#15);
#15=PRODUCT_DEFINITION_CONTEXT('part definition',#21,'design');
#16=PRODUCT_DEFINITION_FORMATION_WITH_SPECIFIED_SOURCE(' ',' ',#18,
 .NOT_KNOWN.);
#17=PRODUCT_RELATED_PRODUCT_CATEGORY('part','',(#18));
#18=PRODUCT('n 02 025 0036nxm001-02','n 02 025 0036nxm001-02',' ',(#19));
#19=PRODUCT_CONTEXT(' ',#21,'mechanical');
#20=APPLICATION_PROTOCOL_DEFINITION('international standard',
'automotive_design',2010,#21);
#21=APPLICATION_CONTEXT(
'core data for automotive mechanical design processes');
#22=SHAPE_REPRESENTATION('n 02 025 0036nxm001-02-None',(#204),#349);
#23=PRESENTATION_LAYER_ASSIGNMENT('1','Layer 1',(#32));
#24=STYLED_ITEM('',(#25),#32);
#25=PRESENTATION_STYLE_ASSIGNMENT((#26));
#26=SURFACE_STYLE_USAGE(.BOTH.,#27);
#27=SURFACE_SIDE_STYLE('',(#28));
#28=SURFACE_STYLE_FILL_AREA(#29);
#29=FILL_AREA_STYLE('',(#30));
#30=FILL_AREA_STYLE_COLOUR('',#31);
#31=COLOUR_RGB('Mittleres Stahlblau',0.596063172350652,0.666666666666667,
0.686259250782025);
#32=MANIFOLD_SOLID_BREP('',#33);
#33=CLOSED_SHELL('',(#47,#48,#49,#50,#51,#52,#53,#54,#55,#56,#57,#58,#59,
#60,#61,#62));
#34=TOROIDAL_SURFACE('',#230,1.8,0.500000000000001);
#35=PLANE('',#224);
#36=PLANE('',#234);
#37=FACE_OUTER_BOUND('',#115,.T.);
#38=CONICAL_SURFACE('',#209,0.,70.0000000000001);
#39=CONICAL_SURFACE('',#213,1.48334329335407,8.54651923025997);
#40=CONICAL_SURFACE('',#215,1.21928517133877,21.45348076974);
#41=CONICAL_SURFACE('',#217,1.48702959702306,81.45348076974);
#42=CONICAL_SURFACE('',#218,1.73425347924874,8.54651923025999);
#43=CONICAL_SURFACE('',#220,2.1,44.9999999999999);
#44=CONICAL_SURFACE('',#222,2.25,45.0000000000001);
#45=CONICAL_SURFACE('',#228,2.25,60.);
#46=VERTEX_LOOP('',#161);
#47=ADVANCED_FACE('',(#68,#69),#63,.T.);
#48=ADVANCED_FACE('',(#70,#71),#38,.F.);
#49=ADVANCED_FACE('',(#72,#73),#64,.F.);
#50=ADVANCED_FACE('',(#74,#75),#39,.F.);
#51=ADVANCED_FACE('',(#76,#77),#40,.F.);
#52=ADVANCED_FACE('',(#78,#79),#41,.F.);
#53=ADVANCED_FACE('',(#80,#81),#42,.T.);
#54=ADVANCED_FACE('',(#82,#83),#43,.T.);
#55=ADVANCED_FACE('',(#84,#85),#44,.T.);
#56=ADVANCED_FACE('',(#37),#35,.T.);
#57=ADVANCED_FACE('',(#86,#87),#65,.T.);
#58=ADVANCED_FACE('',(#88,#89),#45,.T.);
#59=ADVANCED_FACE('',(#90,#91),#34,.F.);
#60=ADVANCED_FACE('',(#92,#93),#66,.T.);
#61=ADVANCED_FACE('',(#94,#95),#36,.F.);
#62=ADVANCED_FACE('',(#96,#97),#67,.T.);
#63=CYLINDRICAL_SURFACE('',#207,2.25);
#64=CYLINDRICAL_SURFACE('',#211,1.5);
#65=CYLINDRICAL_SURFACE('',#226,2.25);
#66=CYLINDRICAL_SURFACE('',#232,1.3);
#67=CYLINDRICAL_SURFACE('',#235,2.25);
#68=FACE_BOUND('',#98,.T.);
#69=FACE_BOUND('',#99,.T.);
#70=FACE_BOUND('',#100,.T.);
#71=FACE_BOUND('',#46,.T.);
#72=FACE_BOUND('',#101,.T.);
#73=FACE_BOUND('',#102,.T.);
#74=FACE_BOUND('',#103,.T.);
#75=FACE_BOUND('',#104,.T.);
#76=FACE_BOUND('',#105,.T.);
#77=FACE_BOUND('',#106,.T.);
#78=FACE_BOUND('',#107,.T.);
#79=FACE_BOUND('',#108,.T.);
#80=FACE_BOUND('',#109,.T.);
#81=FACE_BOUND('',#110,.T.);
#82=FACE_BOUND('',#111,.T.);
#83=FACE_BOUND('',#112,.T.);
#84=FACE_BOUND('',#113,.T.);
#85=FACE_BOUND('',#114,.T.);
#86=FACE_BOUND('',#116,.T.);
#87=FACE_BOUND('',#117,.T.);
#88=FACE_BOUND('',#118,.T.);
#89=FACE_BOUND('',#119,.T.);
#90=FACE_BOUND('',#120,.T.);
#91=FACE_BOUND('',#121,.T.);
#92=FACE_BOUND('',#122,.T.);
#93=FACE_BOUND('',#123,.T.);
#94=FACE_BOUND('',#124,.T.);
#95=FACE_BOUND('',#125,.T.);
#96=FACE_BOUND('',#126,.T.);
#97=FACE_BOUND('',#127,.T.);
#98=EDGE_LOOP('',(#128));
#99=EDGE_LOOP('',(#129));
#100=EDGE_LOOP('',(#130));
#101=EDGE_LOOP('',(#131));
#102=EDGE_LOOP('',(#132));
#103=EDGE_LOOP('',(#133));
#104=EDGE_LOOP('',(#134));
#105=EDGE_LOOP('',(#135));
#106=EDGE_LOOP('',(#136));
#107=EDGE_LOOP('',(#137));
#108=EDGE_LOOP('',(#138));
#109=EDGE_LOOP('',(#139));
#110=EDGE_LOOP('',(#140));
#111=EDGE_LOOP('',(#141));
#112=EDGE_LOOP('',(#142));
#113=EDGE_LOOP('',(#143));
#114=EDGE_LOOP('',(#144));
#115=EDGE_LOOP('',(#145));
#116=EDGE_LOOP('',(#146));
#117=EDGE_LOOP('',(#147));
#118=EDGE_LOOP('',(#148));
#119=EDGE_LOOP('',(#149));
#120=EDGE_LOOP('',(#150));
#121=EDGE_LOOP('',(#151));
#122=EDGE_LOOP('',(#152));
#123=EDGE_LOOP('',(#153));
#124=EDGE_LOOP('',(#154));
#125=EDGE_LOOP('',(#155));
#126=EDGE_LOOP('',(#156));
#127=EDGE_LOOP('',(#157));
#128=ORIENTED_EDGE('',*,*,#174,.T.);
#129=ORIENTED_EDGE('',*,*,#175,.F.);
#130=ORIENTED_EDGE('',*,*,#176,.T.);
#131=ORIENTED_EDGE('',*,*,#177,.T.);
#132=ORIENTED_EDGE('',*,*,#176,.F.);
#133=ORIENTED_EDGE('',*,*,#178,.T.);
#134=ORIENTED_EDGE('',*,*,#177,.F.);
#135=ORIENTED_EDGE('',*,*,#179,.T.);
#136=ORIENTED_EDGE('',*,*,#178,.F.);
#137=ORIENTED_EDGE('',*,*,#180,.T.);
#138=ORIENTED_EDGE('',*,*,#179,.F.);
#139=ORIENTED_EDGE('',*,*,#175,.T.);
#140=ORIENTED_EDGE('',*,*,#180,.F.);
#141=ORIENTED_EDGE('',*,*,#174,.F.);
#142=ORIENTED_EDGE('',*,*,#181,.T.);
#143=ORIENTED_EDGE('',*,*,#181,.F.);
#144=ORIENTED_EDGE('',*,*,#182,.T.);
#145=ORIENTED_EDGE('',*,*,#183,.T.);
#146=ORIENTED_EDGE('',*,*,#184,.F.);
#147=ORIENTED_EDGE('',*,*,#183,.F.);
#148=ORIENTED_EDGE('',*,*,#185,.F.);
#149=ORIENTED_EDGE('',*,*,#184,.T.);
#150=ORIENTED_EDGE('',*,*,#186,.F.);
#151=ORIENTED_EDGE('',*,*,#185,.T.);
#152=ORIENTED_EDGE('',*,*,#186,.T.);
#153=ORIENTED_EDGE('',*,*,#187,.F.);
#154=ORIENTED_EDGE('',*,*,#188,.F.);
#155=ORIENTED_EDGE('',*,*,#187,.T.);
#156=ORIENTED_EDGE('',*,*,#182,.F.);
#157=ORIENTED_EDGE('',*,*,#188,.T.);
#158=VERTEX_POINT('',#302);
#159=VERTEX_POINT('',#304);
#160=VERTEX_POINT('',#307);
#161=VERTEX_POINT('',#308);
#162=VERTEX_POINT('',#311);
#163=VERTEX_POINT('',#314);
#164=VERTEX_POINT('',#317);
#165=VERTEX_POINT('',#320);
#166=VERTEX_POINT('',#324);
#167=VERTEX_POINT('',#327);
#168=VERTEX_POINT('',#330);
#169=VERTEX_POINT('',#333);
#170=VERTEX_POINT('',#336);
#171=VERTEX_POINT('',#339);
#172=VERTEX_POINT('',#342);
#173=VERTEX_POINT('',#345);
#174=EDGE_CURVE('',#158,#158,#189,.T.);
#175=EDGE_CURVE('',#159,#159,#190,.T.);
#176=EDGE_CURVE('',#160,#160,#191,.T.);
#177=EDGE_CURVE('',#162,#162,#192,.T.);
#178=EDGE_CURVE('',#163,#163,#193,.T.);
#179=EDGE_CURVE('',#164,#164,#194,.T.);
#180=EDGE_CURVE('',#165,#165,#195,.T.);
#181=EDGE_CURVE('',#166,#166,#196,.T.);
#182=EDGE_CURVE('',#167,#167,#197,.T.);
#183=EDGE_CURVE('',#168,#168,#198,.T.);
#184=EDGE_CURVE('',#169,#169,#199,.T.);
#185=EDGE_CURVE('',#170,#170,#200,.T.);
#186=EDGE_CURVE('',#171,#171,#201,.T.);
#187=EDGE_CURVE('',#172,#172,#202,.T.);
#188=EDGE_CURVE('',#173,#173,#203,.T.);
#189=CIRCLE('',#205,2.25);
#190=CIRCLE('',#206,2.25);
#191=CIRCLE('',#208,1.5);
#192=CIRCLE('',#210,1.5);
#193=CIRCLE('',#212,1.12128390981664);
#194=CIRCLE('',#214,1.48702959702306);
#195=CIRCLE('',#216,1.73425347924874);
#196=CIRCLE('',#219,2.1);
#197=CIRCLE('',#221,2.25);
#198=CIRCLE('',#223,2.25);
#199=CIRCLE('',#225,2.25);
#200=CIRCLE('',#227,1.55);
#201=CIRCLE('',#229,1.3);
#202=CIRCLE('',#231,1.3);
#203=CIRCLE('',#233,2.25);
#204=AXIS2_PLACEMENT_3D('',#300,#236,#237);
#205=AXIS2_PLACEMENT_3D('',#301,#238,#239);
#206=AXIS2_PLACEMENT_3D('',#303,#240,#241);
#207=AXIS2_PLACEMENT_3D('',#305,#242,#243);
#208=AXIS2_PLACEMENT_3D('',#306,#244,#245);
#209=AXIS2_PLACEMENT_3D('',#309,#246,#247);
#210=AXIS2_PLACEMENT_3D('',#310,#248,#249);
#211=AXIS2_PLACEMENT_3D('',#312,#250,#251);
#212=AXIS2_PLACEMENT_3D('',#313,#252,#253);
#213=AXIS2_PLACEMENT_3D('',#315,#254,#255);
#214=AXIS2_PLACEMENT_3D('',#316,#256,#257);
#215=AXIS2_PLACEMENT_3D('',#318,#258,#259);
#216=AXIS2_PLACEMENT_3D('',#319,#260,#261);
#217=AXIS2_PLACEMENT_3D('',#321,#262,#263);
#218=AXIS2_PLACEMENT_3D('',#322,#264,#265);
#219=AXIS2_PLACEMENT_3D('',#323,#266,#267);
#220=AXIS2_PLACEMENT_3D('',#325,#268,#269);
#221=AXIS2_PLACEMENT_3D('',#326,#270,#271);
#222=AXIS2_PLACEMENT_3D('',#328,#272,#273);
#223=AXIS2_PLACEMENT_3D('',#329,#274,#275);
#224=AXIS2_PLACEMENT_3D('',#331,#276,#277);
#225=AXIS2_PLACEMENT_3D('',#332,#278,#279);
#226=AXIS2_PLACEMENT_3D('',#334,#280,#281);
#227=AXIS2_PLACEMENT_3D('',#335,#282,#283);
#228=AXIS2_PLACEMENT_3D('',#337,#284,#285);
#229=AXIS2_PLACEMENT_3D('',#338,#286,#287);
#230=AXIS2_PLACEMENT_3D('',#340,#288,#289);
#231=AXIS2_PLACEMENT_3D('',#341,#290,#291);
#232=AXIS2_PLACEMENT_3D('',#343,#292,#293);
#233=AXIS2_PLACEMENT_3D('',#344,#294,#295);
#234=AXIS2_PLACEMENT_3D('',#346,#296,#297);
#235=AXIS2_PLACEMENT_3D('',#347,#298,#299);
#236=DIRECTION('',(0.,0.,1.));
#237=DIRECTION('',(1.,0.,0.));
#238=DIRECTION('',(0.,0.,-1.));
#239=DIRECTION('',(-1.,0.,0.));
#240=DIRECTION('',(0.,0.,-1.));
#241=DIRECTION('',(1.,0.,0.));
#242=DIRECTION('',(0.,0.,-1.));
#243=DIRECTION('',(-1.,0.,0.));
#244=DIRECTION('',(0.,0.,-1.));
#245=DIRECTION('',(-1.,0.,0.));
#246=DIRECTION('',(0.,0.,-1.));
#247=DIRECTION('',(-1.,0.,-3.15693854969179E-17));
#248=DIRECTION('',(0.,0.,-1.));
#249=DIRECTION('',(1.,0.,0.));
#250=DIRECTION('',(0.,0.,-1.));
#251=DIRECTION('',(-1.,0.,0.));
#252=DIRECTION('',(0.,0.,-1.));
#253=DIRECTION('',(-1.,0.,0.));
#254=DIRECTION('',(0.,0.,1.));
#255=DIRECTION('',(1.,0.,-3.31480569136699E-16));
#256=DIRECTION('',(0.,0.,-1.));
#257=DIRECTION('',(-1.,0.,0.));
#258=DIRECTION('',(0.,0.,-1.));
#259=DIRECTION('',(-1.,0.,-1.89230319499337E-16));
#260=DIRECTION('',(0.,0.,-1.));
#261=DIRECTION('',(-1.,0.,0.));
#262=DIRECTION('',(0.,0.,-1.));
#263=DIRECTION('',(-1.,0.,-6.25531186742186E-18));
#264=DIRECTION('',(0.,0.,1.));
#265=DIRECTION('',(1.,0.,-1.14114979776641E-17));
#266=DIRECTION('',(0.,0.,-1.));
#267=DIRECTION('',(-1.,0.,0.));
#268=DIRECTION('',(0.,0.,-1.));
#269=DIRECTION('',(-1.,0.,-3.63528520062998E-17));
#270=DIRECTION('',(0.,0.,-1.));
#271=DIRECTION('',(-1.,0.,0.));
#272=DIRECTION('',(0.,0.,1.));
#273=DIRECTION('',(1.,0.,-5.23575805919663E-17));
#274=DIRECTION('',(0.,0.,1.));
#275=DIRECTION('',(1.,0.,0.));
#276=DIRECTION('',(0.,0.,1.));
#277=DIRECTION('',(1.,0.,0.));
#278=DIRECTION('',(0.,0.,-1.));
#279=DIRECTION('',(-1.,0.,0.));
#280=DIRECTION('',(0.,0.,-1.));
#281=DIRECTION('',(-1.,0.,0.));
#282=DIRECTION('',(0.,0.,-1.));
#283=DIRECTION('',(-1.,0.,0.));
#284=DIRECTION('',(0.,0.,1.));
#285=DIRECTION('',(1.,0.,5.9014378956614E-17));
#286=DIRECTION('',(0.,0.,-1.));
#287=DIRECTION('',(-1.,0.,0.));
#288=DIRECTION('',(0.,0.,-1.));
#289=DIRECTION('',(-1.,0.,0.));
#290=DIRECTION('',(0.,0.,-1.));
#291=DIRECTION('',(-1.,0.,0.));
#292=DIRECTION('',(0.,0.,-1.));
#293=DIRECTION('',(-1.,0.,0.));
#294=DIRECTION('',(0.,0.,-1.));
#295=DIRECTION('',(-1.,0.,0.));
#296=DIRECTION('',(0.,0.,-1.));
#297=DIRECTION('',(-1.,0.,0.));
#298=DIRECTION('',(0.,0.,-1.));
#299=DIRECTION('',(-1.,0.,0.));
#300=CARTESIAN_POINT('',(0.,0.,0.));
#301=CARTESIAN_POINT('',(0.,0.,-1.85));
#302=CARTESIAN_POINT('',(-2.25,0.,-1.85));
#303=CARTESIAN_POINT('',(0.,0.,-11.668122357551));
#304=CARTESIAN_POINT('',(2.25,0.,-11.668122357551));
#305=CARTESIAN_POINT('',(0.,0.,7.2));
#306=CARTESIAN_POINT('',(0.,0.,-4.9));
#307=CARTESIAN_POINT('',(-1.5,0.,-4.9));
#308=CARTESIAN_POINT('',(0.,0.,-4.3540446486007));
#309=CARTESIAN_POINT('',(0.,0.,-4.3540446486007));
#310=CARTESIAN_POINT('',(0.,0.,-11.6120815717007));
#311=CARTESIAN_POINT('',(1.5,0.,-11.6120815717007));
#312=CARTESIAN_POINT('',(0.,0.,0.));
#313=CARTESIAN_POINT('',(0.,0.,-14.1321320818675));
#314=CARTESIAN_POINT('',(-1.12128390981664,0.,-14.1321320818675));
#315=CARTESIAN_POINT('',(0.,0.,-11.7229185368279));
#316=CARTESIAN_POINT('',(0.,0.,-15.0628469105287));
#317=CARTESIAN_POINT('',(-1.48702959702306,0.,-15.0628469105287));
#318=CARTESIAN_POINT('',(0.,0.,-14.3815163685909));
#319=CARTESIAN_POINT('',(0.,0.,-15.1));
#320=CARTESIAN_POINT('',(-1.73425347924874,0.,-15.1));
#321=CARTESIAN_POINT('',(0.,0.,-15.0628469105287));
#322=CARTESIAN_POINT('',(0.,0.,-15.1));
#323=CARTESIAN_POINT('',(0.,0.,-1.7));
#324=CARTESIAN_POINT('',(-2.1,0.,-1.7));
#325=CARTESIAN_POINT('',(0.,0.,-1.7));
#326=CARTESIAN_POINT('',(0.,0.,-1.55));
#327=CARTESIAN_POINT('',(-2.25,0.,-1.55));
#328=CARTESIAN_POINT('',(0.,0.,-1.55));
#329=CARTESIAN_POINT('',(0.,0.,7.2));
#330=CARTESIAN_POINT('',(2.25,0.,7.2));
#331=CARTESIAN_POINT('',(0.,0.,7.2));
#332=CARTESIAN_POINT('',(-5.66369695085546E-16,0.,5.00414518843274));
#333=CARTESIAN_POINT('',(-2.25,0.,5.00414518843274));
#334=CARTESIAN_POINT('',(0.,0.,7.2));
#335=CARTESIAN_POINT('',(-5.66369695085546E-16,0.,4.6));
#336=CARTESIAN_POINT('',(-1.55,0.,4.6));
#337=CARTESIAN_POINT('',(-5.66369695085546E-16,0.,5.00414518843274));
#338=CARTESIAN_POINT('',(-5.66369695085546E-16,0.,4.16698729810778));
#339=CARTESIAN_POINT('',(-1.3,0.,4.16698729810778));
#340=CARTESIAN_POINT('',(-6.50521303491303E-16,0.,4.16698729810778));
#341=CARTESIAN_POINT('',(-5.66369695085546E-16,0.,0.));
#342=CARTESIAN_POINT('',(-1.3,0.,0.));
#343=CARTESIAN_POINT('',(-5.66369695085546E-16,0.,7.2));
#344=CARTESIAN_POINT('',(-5.66369695085546E-16,0.,0.));
#345=CARTESIAN_POINT('',(-2.25,0.,0.));
#346=CARTESIAN_POINT('',(1.3,0.,0.));
#347=CARTESIAN_POINT('',(0.,0.,7.2));
#348=MECHANICAL_DESIGN_GEOMETRIC_PRESENTATION_REPRESENTATION('',(#24),#349);
#349=(
GEOMETRIC_REPRESENTATION_CONTEXT(3)
GLOBAL_UNCERTAINTY_ASSIGNED_CONTEXT((#350))
GLOBAL_UNIT_ASSIGNED_CONTEXT((#356,#352,#351))
REPRESENTATION_CONTEXT('n 02 025 0036 x','TOP_LEVEL_ASSEMBLY_PART')
);
#350=UNCERTAINTY_MEASURE_WITH_UNIT(LENGTH_MEASURE(2.E-5),#356,
'DISTANCE_ACCURACY_VALUE','Maximum Tolerance applied to model');
#351=(
NAMED_UNIT(*)
SI_UNIT($,.STERADIAN.)
SOLID_ANGLE_UNIT()
);
#352=(
CONVERSION_BASED_UNIT('DEGREE',#354)
NAMED_UNIT(#353)
PLANE_ANGLE_UNIT()
);
#353=DIMENSIONAL_EXPONENTS(0.,0.,0.,0.,0.,0.,0.);
#354=PLANE_ANGLE_MEASURE_WITH_UNIT(PLANE_ANGLE_MEASURE(0.0174532925),#355);
#355=(
NAMED_UNIT(*)
PLANE_ANGLE_UNIT()
SI_UNIT($,.RADIAN.)
);
#356=(
LENGTH_UNIT()
NAMED_UNIT(*)
SI_UNIT(.MILLI.,.METRE.)
);
ENDSEC;
END-ISO-10303-21;
