ISO-10303-21;
HEADER;
/* Generated by software containing ST-Developer
 * from STEP Tools, Inc. (www.steptools.com) 
 */
/* OPTION: using custom schema-name function */

FILE_DESCRIPTION(
/* description */ (''),
/* implementation_level */ '2;1');

FILE_NAME(
/* name */ 'n 02 025 003x xnxc001-01.stp',
/* time_stamp */ '2021-04-20T11:20:28+02:00',
/* author */ (''),
/* organization */ (''),
/* preprocessor_version */ 'ST-DEVELOPER v16.7',
/* originating_system */ 'SIEMENS PLM Software NX 12.0',
/* authorisation */ '');

FILE_SCHEMA (('AUTOMOTIVE_DESIGN { 1 0 10303 214 3 1 1 1 }'));
ENDSEC;

DATA;
#10=SHAPE_REPRESENTATION_RELATIONSHIP('None',
'relationship between n 02 025 003x xnxc001-01-None and n 02 025 003x 
xnxc001-01-None',#22,#11);
#11=ADVANCED_BREP_SHAPE_REPRESENTATION('n 02 025 003x xnxc001-01-None',
(#32),#253);
#12=SHAPE_DEFINITION_REPRESENTATION(#13,#22);
#13=PRODUCT_DEFINITION_SHAPE('','',#14);
#14=PRODUCT_DEFINITION(' ','',#16,#15);
#15=PRODUCT_DEFINITION_CONTEXT('part definition',#21,'design');
#16=PRODUCT_DEFINITION_FORMATION_WITH_SPECIFIED_SOURCE(' ',' ',#18,
 .NOT_KNOWN.);
#17=PRODUCT_RELATED_PRODUCT_CATEGORY('part','',(#18));
#18=PRODUCT('n 02 025 003x xnxc001-01','n 02 025 003x xnxc001-01',' ',(#19));
#19=PRODUCT_CONTEXT(' ',#21,'mechanical');
#20=APPLICATION_PROTOCOL_DEFINITION('international standard',
'automotive_design',2010,#21);
#21=APPLICATION_CONTEXT(
'core data for automotive mechanical design processes');
#22=SHAPE_REPRESENTATION('n 02 025 003x xnxc001-01-None',(#152),#253);
#23=PRESENTATION_LAYER_ASSIGNMENT('1','Layer 1',(#32));
#24=STYLED_ITEM('',(#25),#32);
#25=PRESENTATION_STYLE_ASSIGNMENT((#26));
#26=SURFACE_STYLE_USAGE(.BOTH.,#27);
#27=SURFACE_SIDE_STYLE('',(#28));
#28=SURFACE_STYLE_FILL_AREA(#29);
#29=FILL_AREA_STYLE('',(#30));
#30=FILL_AREA_STYLE_COLOUR('',#31);
#31=COLOUR_RGB('Medium Steel',0.596063172350652,0.666666666666667,0.686259250782025);
#32=MANIFOLD_SOLID_BREP('',#33);
#33=CLOSED_SHELL('',(#44,#45,#46,#47,#48,#49,#50,#51,#52,#53,#54));
#34=CONICAL_SURFACE('',#159,0.9,59.);
#35=CONICAL_SURFACE('',#164,1.59625908455035E-15,59.);
#36=CONICAL_SURFACE('',#168,1.46921685375427,80.4734164528109);
#37=VERTEX_LOOP('',#124);
#38=VERTEX_LOOP('',#127);
#39=CYLINDRICAL_SURFACE('',#157,2.25);
#40=CYLINDRICAL_SURFACE('',#160,1.);
#41=CYLINDRICAL_SURFACE('',#166,1.25);
#42=CYLINDRICAL_SURFACE('',#170,2.25);
#43=CYLINDRICAL_SURFACE('',#173,1.5);
#44=ADVANCED_FACE('',(#58,#59),#55,.T.);
#45=ADVANCED_FACE('',(#60,#61),#39,.T.);
#46=ADVANCED_FACE('',(#62,#63),#34,.F.);
#47=ADVANCED_FACE('',(#64,#65),#40,.F.);
#48=ADVANCED_FACE('',(#66,#67),#56,.F.);
#49=ADVANCED_FACE('',(#68,#69),#35,.F.);
#50=ADVANCED_FACE('',(#70,#71),#41,.F.);
#51=ADVANCED_FACE('',(#72,#73),#36,.F.);
#52=ADVANCED_FACE('',(#74,#75),#42,.T.);
#53=ADVANCED_FACE('',(#76,#77),#57,.T.);
#54=ADVANCED_FACE('',(#78,#79),#43,.T.);
#55=PLANE('',#155);
#56=PLANE('',#162);
#57=PLANE('',#172);
#58=FACE_BOUND('',#80,.T.);
#59=FACE_BOUND('',#81,.T.);
#60=FACE_BOUND('',#82,.T.);
#61=FACE_BOUND('',#83,.T.);
#62=FACE_BOUND('',#84,.T.);
#63=FACE_BOUND('',#37,.T.);
#64=FACE_BOUND('',#85,.T.);
#65=FACE_BOUND('',#86,.T.);
#66=FACE_BOUND('',#87,.T.);
#67=FACE_BOUND('',#88,.T.);
#68=FACE_BOUND('',#89,.T.);
#69=FACE_BOUND('',#38,.T.);
#70=FACE_BOUND('',#90,.T.);
#71=FACE_BOUND('',#91,.T.);
#72=FACE_BOUND('',#92,.T.);
#73=FACE_BOUND('',#93,.T.);
#74=FACE_BOUND('',#94,.T.);
#75=FACE_BOUND('',#95,.T.);
#76=FACE_BOUND('',#96,.T.);
#77=FACE_BOUND('',#97,.T.);
#78=FACE_BOUND('',#98,.T.);
#79=FACE_BOUND('',#99,.T.);
#80=EDGE_LOOP('',(#100));
#81=EDGE_LOOP('',(#101));
#82=EDGE_LOOP('',(#102));
#83=EDGE_LOOP('',(#103));
#84=EDGE_LOOP('',(#104));
#85=EDGE_LOOP('',(#105));
#86=EDGE_LOOP('',(#106));
#87=EDGE_LOOP('',(#107));
#88=EDGE_LOOP('',(#108));
#89=EDGE_LOOP('',(#109));
#90=EDGE_LOOP('',(#110));
#91=EDGE_LOOP('',(#111));
#92=EDGE_LOOP('',(#112));
#93=EDGE_LOOP('',(#113));
#94=EDGE_LOOP('',(#114));
#95=EDGE_LOOP('',(#115));
#96=EDGE_LOOP('',(#116));
#97=EDGE_LOOP('',(#117));
#98=EDGE_LOOP('',(#118));
#99=EDGE_LOOP('',(#119));
#100=ORIENTED_EDGE('',*,*,#132,.T.);
#101=ORIENTED_EDGE('',*,*,#133,.F.);
#102=ORIENTED_EDGE('',*,*,#133,.T.);
#103=ORIENTED_EDGE('',*,*,#134,.F.);
#104=ORIENTED_EDGE('',*,*,#135,.T.);
#105=ORIENTED_EDGE('',*,*,#132,.F.);
#106=ORIENTED_EDGE('',*,*,#135,.F.);
#107=ORIENTED_EDGE('',*,*,#136,.F.);
#108=ORIENTED_EDGE('',*,*,#134,.T.);
#109=ORIENTED_EDGE('',*,*,#137,.T.);
#110=ORIENTED_EDGE('',*,*,#137,.F.);
#111=ORIENTED_EDGE('',*,*,#138,.T.);
#112=ORIENTED_EDGE('',*,*,#138,.F.);
#113=ORIENTED_EDGE('',*,*,#139,.F.);
#114=ORIENTED_EDGE('',*,*,#140,.T.);
#115=ORIENTED_EDGE('',*,*,#139,.T.);
#116=ORIENTED_EDGE('',*,*,#141,.T.);
#117=ORIENTED_EDGE('',*,*,#140,.F.);
#118=ORIENTED_EDGE('',*,*,#136,.T.);
#119=ORIENTED_EDGE('',*,*,#141,.F.);
#120=VERTEX_POINT('',#220);
#121=VERTEX_POINT('',#222);
#122=VERTEX_POINT('',#225);
#123=VERTEX_POINT('',#228);
#124=VERTEX_POINT('',#229);
#125=VERTEX_POINT('',#233);
#126=VERTEX_POINT('',#236);
#127=VERTEX_POINT('',#237);
#128=VERTEX_POINT('',#240);
#129=VERTEX_POINT('',#243);
#130=VERTEX_POINT('',#246);
#131=VERTEX_POINT('',#249);
#132=EDGE_CURVE('',#120,#120,#142,.T.);
#133=EDGE_CURVE('',#121,#121,#143,.T.);
#134=EDGE_CURVE('',#122,#122,#144,.T.);
#135=EDGE_CURVE('',#123,#123,#145,.T.);
#136=EDGE_CURVE('',#125,#125,#146,.T.);
#137=EDGE_CURVE('',#126,#126,#147,.T.);
#138=EDGE_CURVE('',#128,#128,#148,.T.);
#139=EDGE_CURVE('',#129,#129,#149,.T.);
#140=EDGE_CURVE('',#130,#130,#150,.T.);
#141=EDGE_CURVE('',#131,#131,#151,.T.);
#142=CIRCLE('',#153,1.);
#143=CIRCLE('',#154,2.25);
#144=CIRCLE('',#156,2.25);
#145=CIRCLE('',#158,1.);
#146=CIRCLE('',#161,1.5);
#147=CIRCLE('',#163,1.25);
#148=CIRCLE('',#165,1.25);
#149=CIRCLE('',#167,2.25);
#150=CIRCLE('',#169,2.25);
#151=CIRCLE('',#171,1.5);
#152=AXIS2_PLACEMENT_3D('',#218,#174,#175);
#153=AXIS2_PLACEMENT_3D('',#219,#176,#177);
#154=AXIS2_PLACEMENT_3D('',#221,#178,#179);
#155=AXIS2_PLACEMENT_3D('',#223,#180,#181);
#156=AXIS2_PLACEMENT_3D('',#224,#182,#183);
#157=AXIS2_PLACEMENT_3D('',#226,#184,#185);
#158=AXIS2_PLACEMENT_3D('',#227,#186,#187);
#159=AXIS2_PLACEMENT_3D('',#230,#188,#189);
#160=AXIS2_PLACEMENT_3D('',#231,#190,#191);
#161=AXIS2_PLACEMENT_3D('',#232,#192,#193);
#162=AXIS2_PLACEMENT_3D('',#234,#194,#195);
#163=AXIS2_PLACEMENT_3D('',#235,#196,#197);
#164=AXIS2_PLACEMENT_3D('',#238,#198,#199);
#165=AXIS2_PLACEMENT_3D('',#239,#200,#201);
#166=AXIS2_PLACEMENT_3D('',#241,#202,#203);
#167=AXIS2_PLACEMENT_3D('',#242,#204,#205);
#168=AXIS2_PLACEMENT_3D('',#244,#206,#207);
#169=AXIS2_PLACEMENT_3D('',#245,#208,#209);
#170=AXIS2_PLACEMENT_3D('',#247,#210,#211);
#171=AXIS2_PLACEMENT_3D('',#248,#212,#213);
#172=AXIS2_PLACEMENT_3D('',#250,#214,#215);
#173=AXIS2_PLACEMENT_3D('',#251,#216,#217);
#174=DIRECTION('',(0.,0.,1.));
#175=DIRECTION('',(1.,0.,0.));
#176=DIRECTION('',(-2.46519032881566E-32,0.,-1.));
#177=DIRECTION('',(1.,0.,0.));
#178=DIRECTION('',(-2.46519032881566E-32,0.,-1.));
#179=DIRECTION('',(1.,0.,0.));
#180=DIRECTION('',(2.46519032881566E-32,0.,1.));
#181=DIRECTION('',(-1.,-1.17267306976032E-15,0.));
#182=DIRECTION('',(-2.46519032881566E-32,0.,-1.));
#183=DIRECTION('',(1.,0.,0.));
#184=DIRECTION('',(-2.46519032881566E-32,0.,-1.));
#185=DIRECTION('',(1.,0.,0.));
#186=DIRECTION('',(2.46519032881566E-32,0.,1.));
#187=DIRECTION('',(1.,0.,0.));
#188=DIRECTION('',(2.46519032881566E-32,0.,1.));
#189=DIRECTION('',(-1.,-1.17094235646335E-15,2.50023278960145E-17));
#190=DIRECTION('',(-2.46519032881566E-32,0.,-1.));
#191=DIRECTION('',(1.,0.,0.));
#192=DIRECTION('',(-2.46519032881566E-32,0.,-1.));
#193=DIRECTION('',(1.,0.,0.));
#194=DIRECTION('',(2.46519032881566E-32,0.,1.));
#195=DIRECTION('',(-1.,-1.17267306976032E-15,0.));
#196=DIRECTION('',(-2.46519032881566E-32,0.,-1.));
#197=DIRECTION('',(-1.,0.,0.));
#198=DIRECTION('',(-2.46519032881566E-32,0.,-1.));
#199=DIRECTION('',(1.,1.17157557229758E-15,3.17909741593205E-17));
#200=DIRECTION('',(-2.46519032881566E-32,0.,-1.));
#201=DIRECTION('',(-1.,0.,0.));
#202=DIRECTION('',(-2.46519032881566E-32,0.,-1.));
#203=DIRECTION('',(1.,0.,0.));
#204=DIRECTION('',(2.46519032881566E-32,0.,1.));
#205=DIRECTION('',(-1.,0.,0.));
#206=DIRECTION('',(-2.46519032881566E-32,0.,-1.));
#207=DIRECTION('',(1.,1.17118058910602E-15,1.62987358324893E-17));
#208=DIRECTION('',(-2.46519032881566E-32,0.,-1.));
#209=DIRECTION('',(1.,0.,-4.27984432086052E-32));
#210=DIRECTION('',(-2.46519032881566E-32,0.,-1.));
#211=DIRECTION('',(1.,0.,0.));
#212=DIRECTION('',(-2.46519032881566E-32,0.,-1.));
#213=DIRECTION('',(1.,0.,0.));
#214=DIRECTION('',(2.46519032881566E-32,0.,1.));
#215=DIRECTION('',(-1.,-1.17267306976032E-15,2.46519032881566E-32));
#216=DIRECTION('',(-2.46519032881566E-32,0.,-1.));
#217=DIRECTION('',(1.,0.,0.));
#218=CARTESIAN_POINT('',(0.,0.,0.));
#219=CARTESIAN_POINT('',(1.36736175538941E-63,39.,7.2));
#220=CARTESIAN_POINT('',(1.,39.,7.2));
#221=CARTESIAN_POINT('',(0.,39.,7.2));
#222=CARTESIAN_POINT('',(2.25,39.,7.2));
#223=CARTESIAN_POINT('',(2.25,39.,7.2));
#224=CARTESIAN_POINT('',(-6.40949485492072E-32,39.,4.6));
#225=CARTESIAN_POINT('',(2.25,39.,4.6));
#226=CARTESIAN_POINT('',(0.,39.,7.2));
#227=CARTESIAN_POINT('',(-1.85873229202997E-31,39.,-0.339913938097242));
#228=CARTESIAN_POINT('',(1.,39.,-0.339913938097242));
#229=CARTESIAN_POINT('',(-2.00685587072927E-31,39.,-0.940774557124802));
#230=CARTESIAN_POINT('',(-1.8735446498999E-31,39.,-0.399999999999998));
#231=CARTESIAN_POINT('',(0.,39.,7.2));
#232=CARTESIAN_POINT('',(-6.40949485492072E-32,39.,4.6));
#233=CARTESIAN_POINT('',(1.5,39.,4.6));
#234=CARTESIAN_POINT('',(2.25,39.,4.6));
#235=CARTESIAN_POINT('',(-2.94584940319213E-31,39.,-4.74978484524311));
#236=CARTESIAN_POINT('',(-1.25,39.,-4.74978484524311));
#237=CARTESIAN_POINT('',(-1.59625908455035E-15,39.,-3.99870907145866));
#238=CARTESIAN_POINT('',(-2.76069492981801E-31,39.,-3.99870907145866));
#239=CARTESIAN_POINT('',(-5.47810522729311E-31,39.,-15.0218348143729));
#240=CARTESIAN_POINT('',(-1.25,39.,-15.0218348143729));
#241=CARTESIAN_POINT('',(0.,39.,7.2));
#242=CARTESIAN_POINT('',(-5.51947595509965E-31,39.,-15.1896544237675));
#243=CARTESIAN_POINT('',(-2.25,39.,-15.1896544237675));
#244=CARTESIAN_POINT('',(-5.48717438808039E-31,39.,-15.0586237011426));
#245=CARTESIAN_POINT('',(-1.77493703674728E-31,39.,8.67361737988404E-16));
#246=CARTESIAN_POINT('',(2.25,39.,8.67361737988403E-16));
#247=CARTESIAN_POINT('',(0.,39.,7.2));
#248=CARTESIAN_POINT('',(-1.77493703674728E-31,39.,8.67361737988404E-16));
#249=CARTESIAN_POINT('',(1.5,39.,8.67361737988404E-16));
#250=CARTESIAN_POINT('',(2.25,39.,8.67361737988404E-16));
#251=CARTESIAN_POINT('',(0.,39.,7.2));
#252=MECHANICAL_DESIGN_GEOMETRIC_PRESENTATION_REPRESENTATION('',(#24),#253);
#253=(
GEOMETRIC_REPRESENTATION_CONTEXT(3)
GLOBAL_UNCERTAINTY_ASSIGNED_CONTEXT((#254))
GLOBAL_UNIT_ASSIGNED_CONTEXT((#260,#256,#255))
REPRESENTATION_CONTEXT('n 02 025 003x xnxc001-01',
'TOP_LEVEL_ASSEMBLY_PART')
);
#254=UNCERTAINTY_MEASURE_WITH_UNIT(LENGTH_MEASURE(2.E-5),#260,
'DISTANCE_ACCURACY_VALUE','Maximum Tolerance applied to model');
#255=(
NAMED_UNIT(*)
SI_UNIT($,.STERADIAN.)
SOLID_ANGLE_UNIT()
);
#256=(
CONVERSION_BASED_UNIT('DEGREE',#258)
NAMED_UNIT(#257)
PLANE_ANGLE_UNIT()
);
#257=DIMENSIONAL_EXPONENTS(0.,0.,0.,0.,0.,0.,0.);
#258=PLANE_ANGLE_MEASURE_WITH_UNIT(PLANE_ANGLE_MEASURE(0.0174532925),#259);
#259=(
NAMED_UNIT(*)
PLANE_ANGLE_UNIT()
SI_UNIT($,.RADIAN.)
);
#260=(
LENGTH_UNIT()
NAMED_UNIT(*)
SI_UNIT(.MILLI.,.METRE.)
);
ENDSEC;
END-ISO-10303-21;
