ISO-10303-21;
HEADER;
/* Generated by software containing ST-Developer
 * from STEP Tools, Inc. (www.steptools.com) 
 */
/* OPTION: using custom schema-name function */

FILE_DESCRIPTION(
/* description */ (''),
/* implementation_level */ '2;1');

FILE_NAME(
/* name */ 'n 02 025 0037 x.stp',
/* time_stamp */ '2018-09-25T11:34:39+02:00',
/* author */ (''),
/* organization */ (''),
/* preprocessor_version */ 'ST-DEVELOPER v16',
/* originating_system */ 'SIEMENS PLM Software NX 11.0',
/* authorisation */ '');

FILE_SCHEMA (('AUTOMOTIVE_DESIGN { 1 0 10303 214 3 1 1 1 }'));
ENDSEC;

DATA;
#10=SHAPE_REPRESENTATION_RELATIONSHIP('None',
'relationship between n 02 025 0037nxm001-02-None and n 02 025 0037nxm
001-02-None',#22,#11);
#11=ADVANCED_BREP_SHAPE_REPRESENTATION('n 02 025 0037nxm001-02-None',(#32),
#409);
#12=SHAPE_DEFINITION_REPRESENTATION(#13,#22);
#13=PRODUCT_DEFINITION_SHAPE('','',#14);
#14=PRODUCT_DEFINITION(' ','',#16,#15);
#15=PRODUCT_DEFINITION_CONTEXT('part definition',#21,'design');
#16=PRODUCT_DEFINITION_FORMATION_WITH_SPECIFIED_SOURCE(' ',' ',#18,
 .NOT_KNOWN.);
#17=PRODUCT_RELATED_PRODUCT_CATEGORY('part','',(#18));
#18=PRODUCT('n 02 025 0037nxm001-02','n 02 025 0037nxm001-02',' ',(#19));
#19=PRODUCT_CONTEXT(' ',#21,'mechanical');
#20=APPLICATION_PROTOCOL_DEFINITION('international standard',
'automotive_design',2010,#21);
#21=APPLICATION_CONTEXT(
'core data for automotive mechanical design processes');
#22=SHAPE_REPRESENTATION('n 02 025 0037nxm001-02-None',(#237),#409);
#23=PRESENTATION_LAYER_ASSIGNMENT('1','Layer 1',(#32));
#24=STYLED_ITEM('',(#25),#32);
#25=PRESENTATION_STYLE_ASSIGNMENT((#26));
#26=SURFACE_STYLE_USAGE(.BOTH.,#27);
#27=SURFACE_SIDE_STYLE('',(#28));
#28=SURFACE_STYLE_FILL_AREA(#29);
#29=FILL_AREA_STYLE('',(#30));
#30=FILL_AREA_STYLE_COLOUR('',#31);
#31=COLOUR_RGB('Mittleres Stahlblau',0.596063172350652,0.666666666666667,
0.686259250782025);
#32=MANIFOLD_SOLID_BREP('',#33);
#33=CLOSED_SHELL('',(#49,#50,#51,#52,#53,#54,#55,#56,#57,#58,#59,#60,#61,
#62,#63,#64,#65,#66,#67));
#34=TOROIDAL_SURFACE('',#269,2.,0.5);
#35=PLANE('',#263);
#36=PLANE('',#273);
#37=FACE_OUTER_BOUND('',#133,.T.);
#38=CONICAL_SURFACE('',#245,0.,70.0000000000001);
#39=CONICAL_SURFACE('',#249,1.48334329335407,8.54651923025997);
#40=CONICAL_SURFACE('',#251,1.21928517133877,21.45348076974);
#41=CONICAL_SURFACE('',#253,1.48702959702306,81.45348076974);
#42=CONICAL_SURFACE('',#254,1.73425347924874,8.54651923025999);
#43=CONICAL_SURFACE('',#256,2.1,44.9999999999999);
#44=CONICAL_SURFACE('',#257,2.25,45.0000000000001);
#45=CONICAL_SURFACE('',#259,2.1,45.0000000000001);
#46=CONICAL_SURFACE('',#261,2.25,44.9999999999999);
#47=CONICAL_SURFACE('',#267,2.25,60.0000000000001);
#48=VERTEX_LOOP('',#187);
#49=ADVANCED_FACE('',(#74,#75),#68,.T.);
#50=ADVANCED_FACE('',(#76,#77),#69,.T.);
#51=ADVANCED_FACE('',(#78,#79),#38,.F.);
#52=ADVANCED_FACE('',(#80,#81),#70,.F.);
#53=ADVANCED_FACE('',(#82,#83),#39,.F.);
#54=ADVANCED_FACE('',(#84,#85),#40,.F.);
#55=ADVANCED_FACE('',(#86,#87),#41,.F.);
#56=ADVANCED_FACE('',(#88,#89),#42,.T.);
#57=ADVANCED_FACE('',(#90,#91),#43,.T.);
#58=ADVANCED_FACE('',(#92,#93),#44,.T.);
#59=ADVANCED_FACE('',(#94,#95),#45,.T.);
#60=ADVANCED_FACE('',(#96,#97),#46,.T.);
#61=ADVANCED_FACE('',(#37),#35,.T.);
#62=ADVANCED_FACE('',(#98,#99),#71,.T.);
#63=ADVANCED_FACE('',(#100,#101),#47,.T.);
#64=ADVANCED_FACE('',(#102,#103),#34,.F.);
#65=ADVANCED_FACE('',(#104,#105),#72,.T.);
#66=ADVANCED_FACE('',(#106,#107),#36,.F.);
#67=ADVANCED_FACE('',(#108,#109),#73,.T.);
#68=CYLINDRICAL_SURFACE('',#240,2.25);
#69=CYLINDRICAL_SURFACE('',#243,2.25);
#70=CYLINDRICAL_SURFACE('',#247,1.5);
#71=CYLINDRICAL_SURFACE('',#265,2.25);
#72=CYLINDRICAL_SURFACE('',#271,1.5);
#73=CYLINDRICAL_SURFACE('',#274,2.25);
#74=FACE_BOUND('',#110,.T.);
#75=FACE_BOUND('',#111,.T.);
#76=FACE_BOUND('',#112,.T.);
#77=FACE_BOUND('',#113,.T.);
#78=FACE_BOUND('',#114,.T.);
#79=FACE_BOUND('',#48,.T.);
#80=FACE_BOUND('',#115,.T.);
#81=FACE_BOUND('',#116,.T.);
#82=FACE_BOUND('',#117,.T.);
#83=FACE_BOUND('',#118,.T.);
#84=FACE_BOUND('',#119,.T.);
#85=FACE_BOUND('',#120,.T.);
#86=FACE_BOUND('',#121,.T.);
#87=FACE_BOUND('',#122,.T.);
#88=FACE_BOUND('',#123,.T.);
#89=FACE_BOUND('',#124,.T.);
#90=FACE_BOUND('',#125,.T.);
#91=FACE_BOUND('',#126,.T.);
#92=FACE_BOUND('',#127,.T.);
#93=FACE_BOUND('',#128,.T.);
#94=FACE_BOUND('',#129,.T.);
#95=FACE_BOUND('',#130,.T.);
#96=FACE_BOUND('',#131,.T.);
#97=FACE_BOUND('',#132,.T.);
#98=FACE_BOUND('',#134,.T.);
#99=FACE_BOUND('',#135,.T.);
#100=FACE_BOUND('',#136,.T.);
#101=FACE_BOUND('',#137,.T.);
#102=FACE_BOUND('',#138,.T.);
#103=FACE_BOUND('',#139,.T.);
#104=FACE_BOUND('',#140,.T.);
#105=FACE_BOUND('',#141,.T.);
#106=FACE_BOUND('',#142,.T.);
#107=FACE_BOUND('',#143,.T.);
#108=FACE_BOUND('',#144,.T.);
#109=FACE_BOUND('',#145,.T.);
#110=EDGE_LOOP('',(#146));
#111=EDGE_LOOP('',(#147));
#112=EDGE_LOOP('',(#148));
#113=EDGE_LOOP('',(#149));
#114=EDGE_LOOP('',(#150));
#115=EDGE_LOOP('',(#151));
#116=EDGE_LOOP('',(#152));
#117=EDGE_LOOP('',(#153));
#118=EDGE_LOOP('',(#154));
#119=EDGE_LOOP('',(#155));
#120=EDGE_LOOP('',(#156));
#121=EDGE_LOOP('',(#157));
#122=EDGE_LOOP('',(#158));
#123=EDGE_LOOP('',(#159));
#124=EDGE_LOOP('',(#160));
#125=EDGE_LOOP('',(#161));
#126=EDGE_LOOP('',(#162));
#127=EDGE_LOOP('',(#163));
#128=EDGE_LOOP('',(#164));
#129=EDGE_LOOP('',(#165));
#130=EDGE_LOOP('',(#166));
#131=EDGE_LOOP('',(#167));
#132=EDGE_LOOP('',(#168));
#133=EDGE_LOOP('',(#169));
#134=EDGE_LOOP('',(#170));
#135=EDGE_LOOP('',(#171));
#136=EDGE_LOOP('',(#172));
#137=EDGE_LOOP('',(#173));
#138=EDGE_LOOP('',(#174));
#139=EDGE_LOOP('',(#175));
#140=EDGE_LOOP('',(#176));
#141=EDGE_LOOP('',(#177));
#142=EDGE_LOOP('',(#178));
#143=EDGE_LOOP('',(#179));
#144=EDGE_LOOP('',(#180));
#145=EDGE_LOOP('',(#181));
#146=ORIENTED_EDGE('',*,*,#201,.T.);
#147=ORIENTED_EDGE('',*,*,#202,.F.);
#148=ORIENTED_EDGE('',*,*,#203,.T.);
#149=ORIENTED_EDGE('',*,*,#204,.F.);
#150=ORIENTED_EDGE('',*,*,#205,.T.);
#151=ORIENTED_EDGE('',*,*,#206,.T.);
#152=ORIENTED_EDGE('',*,*,#205,.F.);
#153=ORIENTED_EDGE('',*,*,#207,.T.);
#154=ORIENTED_EDGE('',*,*,#206,.F.);
#155=ORIENTED_EDGE('',*,*,#208,.T.);
#156=ORIENTED_EDGE('',*,*,#207,.F.);
#157=ORIENTED_EDGE('',*,*,#209,.T.);
#158=ORIENTED_EDGE('',*,*,#208,.F.);
#159=ORIENTED_EDGE('',*,*,#204,.T.);
#160=ORIENTED_EDGE('',*,*,#209,.F.);
#161=ORIENTED_EDGE('',*,*,#203,.F.);
#162=ORIENTED_EDGE('',*,*,#210,.T.);
#163=ORIENTED_EDGE('',*,*,#210,.F.);
#164=ORIENTED_EDGE('',*,*,#202,.T.);
#165=ORIENTED_EDGE('',*,*,#201,.F.);
#166=ORIENTED_EDGE('',*,*,#211,.T.);
#167=ORIENTED_EDGE('',*,*,#211,.F.);
#168=ORIENTED_EDGE('',*,*,#212,.T.);
#169=ORIENTED_EDGE('',*,*,#213,.T.);
#170=ORIENTED_EDGE('',*,*,#214,.F.);
#171=ORIENTED_EDGE('',*,*,#213,.F.);
#172=ORIENTED_EDGE('',*,*,#215,.F.);
#173=ORIENTED_EDGE('',*,*,#214,.T.);
#174=ORIENTED_EDGE('',*,*,#216,.F.);
#175=ORIENTED_EDGE('',*,*,#215,.T.);
#176=ORIENTED_EDGE('',*,*,#216,.T.);
#177=ORIENTED_EDGE('',*,*,#217,.F.);
#178=ORIENTED_EDGE('',*,*,#218,.F.);
#179=ORIENTED_EDGE('',*,*,#217,.T.);
#180=ORIENTED_EDGE('',*,*,#212,.F.);
#181=ORIENTED_EDGE('',*,*,#218,.T.);
#182=VERTEX_POINT('',#353);
#183=VERTEX_POINT('',#355);
#184=VERTEX_POINT('',#358);
#185=VERTEX_POINT('',#360);
#186=VERTEX_POINT('',#363);
#187=VERTEX_POINT('',#364);
#188=VERTEX_POINT('',#367);
#189=VERTEX_POINT('',#370);
#190=VERTEX_POINT('',#373);
#191=VERTEX_POINT('',#376);
#192=VERTEX_POINT('',#380);
#193=VERTEX_POINT('',#384);
#194=VERTEX_POINT('',#387);
#195=VERTEX_POINT('',#390);
#196=VERTEX_POINT('',#393);
#197=VERTEX_POINT('',#396);
#198=VERTEX_POINT('',#399);
#199=VERTEX_POINT('',#402);
#200=VERTEX_POINT('',#405);
#201=EDGE_CURVE('',#182,#182,#219,.T.);
#202=EDGE_CURVE('',#183,#183,#220,.T.);
#203=EDGE_CURVE('',#184,#184,#221,.T.);
#204=EDGE_CURVE('',#185,#185,#222,.T.);
#205=EDGE_CURVE('',#186,#186,#223,.T.);
#206=EDGE_CURVE('',#188,#188,#224,.T.);
#207=EDGE_CURVE('',#189,#189,#225,.T.);
#208=EDGE_CURVE('',#190,#190,#226,.T.);
#209=EDGE_CURVE('',#191,#191,#227,.T.);
#210=EDGE_CURVE('',#192,#192,#228,.T.);
#211=EDGE_CURVE('',#193,#193,#229,.T.);
#212=EDGE_CURVE('',#194,#194,#230,.T.);
#213=EDGE_CURVE('',#195,#195,#231,.T.);
#214=EDGE_CURVE('',#196,#196,#232,.T.);
#215=EDGE_CURVE('',#197,#197,#233,.T.);
#216=EDGE_CURVE('',#198,#198,#234,.T.);
#217=EDGE_CURVE('',#199,#199,#235,.T.);
#218=EDGE_CURVE('',#200,#200,#236,.T.);
#219=CIRCLE('',#238,2.25);
#220=CIRCLE('',#239,2.25);
#221=CIRCLE('',#241,2.25);
#222=CIRCLE('',#242,2.25);
#223=CIRCLE('',#244,1.5);
#224=CIRCLE('',#246,1.5);
#225=CIRCLE('',#248,1.12128390981664);
#226=CIRCLE('',#250,1.48702959702306);
#227=CIRCLE('',#252,1.73425347924874);
#228=CIRCLE('',#255,2.1);
#229=CIRCLE('',#258,2.1);
#230=CIRCLE('',#260,2.25);
#231=CIRCLE('',#262,2.25);
#232=CIRCLE('',#264,2.25);
#233=CIRCLE('',#266,1.75);
#234=CIRCLE('',#268,1.5);
#235=CIRCLE('',#270,1.5);
#236=CIRCLE('',#272,2.25);
#237=AXIS2_PLACEMENT_3D('',#351,#275,#276);
#238=AXIS2_PLACEMENT_3D('',#352,#277,#278);
#239=AXIS2_PLACEMENT_3D('',#354,#279,#280);
#240=AXIS2_PLACEMENT_3D('',#356,#281,#282);
#241=AXIS2_PLACEMENT_3D('',#357,#283,#284);
#242=AXIS2_PLACEMENT_3D('',#359,#285,#286);
#243=AXIS2_PLACEMENT_3D('',#361,#287,#288);
#244=AXIS2_PLACEMENT_3D('',#362,#289,#290);
#245=AXIS2_PLACEMENT_3D('',#365,#291,#292);
#246=AXIS2_PLACEMENT_3D('',#366,#293,#294);
#247=AXIS2_PLACEMENT_3D('',#368,#295,#296);
#248=AXIS2_PLACEMENT_3D('',#369,#297,#298);
#249=AXIS2_PLACEMENT_3D('',#371,#299,#300);
#250=AXIS2_PLACEMENT_3D('',#372,#301,#302);
#251=AXIS2_PLACEMENT_3D('',#374,#303,#304);
#252=AXIS2_PLACEMENT_3D('',#375,#305,#306);
#253=AXIS2_PLACEMENT_3D('',#377,#307,#308);
#254=AXIS2_PLACEMENT_3D('',#378,#309,#310);
#255=AXIS2_PLACEMENT_3D('',#379,#311,#312);
#256=AXIS2_PLACEMENT_3D('',#381,#313,#314);
#257=AXIS2_PLACEMENT_3D('',#382,#315,#316);
#258=AXIS2_PLACEMENT_3D('',#383,#317,#318);
#259=AXIS2_PLACEMENT_3D('',#385,#319,#320);
#260=AXIS2_PLACEMENT_3D('',#386,#321,#322);
#261=AXIS2_PLACEMENT_3D('',#388,#323,#324);
#262=AXIS2_PLACEMENT_3D('',#389,#325,#326);
#263=AXIS2_PLACEMENT_3D('',#391,#327,#328);
#264=AXIS2_PLACEMENT_3D('',#392,#329,#330);
#265=AXIS2_PLACEMENT_3D('',#394,#331,#332);
#266=AXIS2_PLACEMENT_3D('',#395,#333,#334);
#267=AXIS2_PLACEMENT_3D('',#397,#335,#336);
#268=AXIS2_PLACEMENT_3D('',#398,#337,#338);
#269=AXIS2_PLACEMENT_3D('',#400,#339,#340);
#270=AXIS2_PLACEMENT_3D('',#401,#341,#342);
#271=AXIS2_PLACEMENT_3D('',#403,#343,#344);
#272=AXIS2_PLACEMENT_3D('',#404,#345,#346);
#273=AXIS2_PLACEMENT_3D('',#406,#347,#348);
#274=AXIS2_PLACEMENT_3D('',#407,#349,#350);
#275=DIRECTION('',(0.,0.,1.));
#276=DIRECTION('',(1.,0.,0.));
#277=DIRECTION('',(0.,0.,-1.));
#278=DIRECTION('',(-1.,0.,0.));
#279=DIRECTION('',(0.,0.,-1.));
#280=DIRECTION('',(-1.,0.,0.));
#281=DIRECTION('',(0.,0.,-1.));
#282=DIRECTION('',(-1.,0.,0.));
#283=DIRECTION('',(0.,0.,-1.));
#284=DIRECTION('',(-1.,0.,0.));
#285=DIRECTION('',(0.,0.,-1.));
#286=DIRECTION('',(1.,0.,0.));
#287=DIRECTION('',(0.,0.,-1.));
#288=DIRECTION('',(-1.,0.,0.));
#289=DIRECTION('',(0.,0.,-1.));
#290=DIRECTION('',(-1.,0.,0.));
#291=DIRECTION('',(0.,0.,-1.));
#292=DIRECTION('',(-1.,0.,-3.15693854969179E-17));
#293=DIRECTION('',(0.,0.,-1.));
#294=DIRECTION('',(1.,0.,0.));
#295=DIRECTION('',(0.,0.,-1.));
#296=DIRECTION('',(-1.,0.,0.));
#297=DIRECTION('',(0.,0.,-1.));
#298=DIRECTION('',(-1.,0.,0.));
#299=DIRECTION('',(0.,0.,1.));
#300=DIRECTION('',(1.,0.,-3.31480569136699E-16));
#301=DIRECTION('',(0.,0.,-1.));
#302=DIRECTION('',(-1.,0.,0.));
#303=DIRECTION('',(0.,0.,-1.));
#304=DIRECTION('',(-1.,0.,-1.89230319499337E-16));
#305=DIRECTION('',(0.,0.,-1.));
#306=DIRECTION('',(-1.,0.,0.));
#307=DIRECTION('',(0.,0.,-1.));
#308=DIRECTION('',(-1.,0.,-6.25531186742186E-18));
#309=DIRECTION('',(0.,0.,1.));
#310=DIRECTION('',(1.,0.,-1.14114979776641E-17));
#311=DIRECTION('',(0.,0.,-1.));
#312=DIRECTION('',(-1.,0.,0.));
#313=DIRECTION('',(0.,0.,-1.));
#314=DIRECTION('',(-1.,0.,-3.63528520062998E-17));
#315=DIRECTION('',(0.,0.,1.));
#316=DIRECTION('',(1.,0.,-5.23575805919663E-17));
#317=DIRECTION('',(0.,0.,-1.));
#318=DIRECTION('',(-1.,0.,0.));
#319=DIRECTION('',(0.,0.,-1.));
#320=DIRECTION('',(-1.,0.,-1.01917817231947E-16));
#321=DIRECTION('',(0.,0.,-1.));
#322=DIRECTION('',(-1.,0.,0.));
#323=DIRECTION('',(0.,0.,1.));
#324=DIRECTION('',(1.,0.,-8.00508463596184E-18));
#325=DIRECTION('',(0.,0.,1.));
#326=DIRECTION('',(1.,0.,0.));
#327=DIRECTION('',(0.,0.,1.));
#328=DIRECTION('',(1.,0.,0.));
#329=DIRECTION('',(0.,0.,-1.));
#330=DIRECTION('',(-1.,0.,0.));
#331=DIRECTION('',(0.,0.,-1.));
#332=DIRECTION('',(-1.,0.,0.));
#333=DIRECTION('',(0.,0.,-1.));
#334=DIRECTION('',(-1.,0.,0.));
#335=DIRECTION('',(0.,0.,1.));
#336=DIRECTION('',(1.,0.,5.00121855564525E-17));
#337=DIRECTION('',(0.,0.,-1.));
#338=DIRECTION('',(-1.,0.,0.));
#339=DIRECTION('',(0.,0.,-1.));
#340=DIRECTION('',(-1.,0.,0.));
#341=DIRECTION('',(0.,0.,-1.));
#342=DIRECTION('',(-1.,0.,0.));
#343=DIRECTION('',(0.,0.,-1.));
#344=DIRECTION('',(-1.,0.,0.));
#345=DIRECTION('',(0.,0.,-1.));
#346=DIRECTION('',(-1.,0.,0.));
#347=DIRECTION('',(0.,0.,-1.));
#348=DIRECTION('',(-1.,0.,0.));
#349=DIRECTION('',(0.,0.,-1.));
#350=DIRECTION('',(-1.,0.,0.));
#351=CARTESIAN_POINT('',(0.,0.,0.));
#352=CARTESIAN_POINT('',(0.,0.,-1.25));
#353=CARTESIAN_POINT('',(-2.25,0.,-1.25));
#354=CARTESIAN_POINT('',(0.,0.,-1.55));
#355=CARTESIAN_POINT('',(-2.25,0.,-1.55));
#356=CARTESIAN_POINT('',(0.,0.,7.2));
#357=CARTESIAN_POINT('',(0.,0.,-1.85));
#358=CARTESIAN_POINT('',(-2.25,0.,-1.85));
#359=CARTESIAN_POINT('',(0.,0.,-11.668122357551));
#360=CARTESIAN_POINT('',(2.25,0.,-11.668122357551));
#361=CARTESIAN_POINT('',(0.,0.,7.2));
#362=CARTESIAN_POINT('',(0.,0.,-4.9));
#363=CARTESIAN_POINT('',(-1.5,0.,-4.9));
#364=CARTESIAN_POINT('',(0.,0.,-4.3540446486007));
#365=CARTESIAN_POINT('',(0.,0.,-4.3540446486007));
#366=CARTESIAN_POINT('',(0.,0.,-11.6120815717007));
#367=CARTESIAN_POINT('',(1.5,0.,-11.6120815717007));
#368=CARTESIAN_POINT('',(0.,0.,0.));
#369=CARTESIAN_POINT('',(0.,0.,-14.1321320818675));
#370=CARTESIAN_POINT('',(-1.12128390981664,0.,-14.1321320818675));
#371=CARTESIAN_POINT('',(0.,0.,-11.7229185368279));
#372=CARTESIAN_POINT('',(0.,0.,-15.0628469105287));
#373=CARTESIAN_POINT('',(-1.48702959702306,0.,-15.0628469105287));
#374=CARTESIAN_POINT('',(0.,0.,-14.3815163685909));
#375=CARTESIAN_POINT('',(0.,0.,-15.1));
#376=CARTESIAN_POINT('',(-1.73425347924874,0.,-15.1));
#377=CARTESIAN_POINT('',(0.,0.,-15.0628469105287));
#378=CARTESIAN_POINT('',(0.,0.,-15.1));
#379=CARTESIAN_POINT('',(0.,0.,-1.7));
#380=CARTESIAN_POINT('',(-2.1,0.,-1.7));
#381=CARTESIAN_POINT('',(0.,0.,-1.7));
#382=CARTESIAN_POINT('',(0.,0.,-1.55));
#383=CARTESIAN_POINT('',(0.,0.,-1.1));
#384=CARTESIAN_POINT('',(-2.1,0.,-1.1));
#385=CARTESIAN_POINT('',(0.,0.,-1.1));
#386=CARTESIAN_POINT('',(0.,0.,-0.949999999999998));
#387=CARTESIAN_POINT('',(-2.25,0.,-0.949999999999998));
#388=CARTESIAN_POINT('',(0.,0.,-0.949999999999998));
#389=CARTESIAN_POINT('',(0.,0.,7.2));
#390=CARTESIAN_POINT('',(2.25,0.,7.2));
#391=CARTESIAN_POINT('',(0.,0.,7.2));
#392=CARTESIAN_POINT('',(-5.66369695085546E-16,0.,4.88867513459481));
#393=CARTESIAN_POINT('',(-2.25,0.,4.88867513459481));
#394=CARTESIAN_POINT('',(0.,0.,7.2));
#395=CARTESIAN_POINT('',(-5.66369695085546E-16,0.,4.6));
#396=CARTESIAN_POINT('',(-1.75,0.,4.6));
#397=CARTESIAN_POINT('',(-5.66369695085546E-16,0.,4.88867513459481));
#398=CARTESIAN_POINT('',(-5.66369695085546E-16,0.,4.16698729810778));
#399=CARTESIAN_POINT('',(-1.5,0.,4.16698729810778));
#400=CARTESIAN_POINT('',(-4.33680868994202E-16,0.,4.16698729810778));
#401=CARTESIAN_POINT('',(-5.66369695085546E-16,0.,0.));
#402=CARTESIAN_POINT('',(-1.5,0.,0.));
#403=CARTESIAN_POINT('',(-5.66369695085546E-16,0.,7.2));
#404=CARTESIAN_POINT('',(-5.66369695085546E-16,0.,0.));
#405=CARTESIAN_POINT('',(-2.25,0.,0.));
#406=CARTESIAN_POINT('',(1.5,0.,0.));
#407=CARTESIAN_POINT('',(0.,0.,7.2));
#408=MECHANICAL_DESIGN_GEOMETRIC_PRESENTATION_REPRESENTATION('',(#24),#409);
#409=(
GEOMETRIC_REPRESENTATION_CONTEXT(3)
GLOBAL_UNCERTAINTY_ASSIGNED_CONTEXT((#410))
GLOBAL_UNIT_ASSIGNED_CONTEXT((#416,#412,#411))
REPRESENTATION_CONTEXT('n 02 025 0037 x','TOP_LEVEL_ASSEMBLY_PART')
);
#410=UNCERTAINTY_MEASURE_WITH_UNIT(LENGTH_MEASURE(2.E-5),#416,
'DISTANCE_ACCURACY_VALUE','Maximum Tolerance applied to model');
#411=(
NAMED_UNIT(*)
SI_UNIT($,.STERADIAN.)
SOLID_ANGLE_UNIT()
);
#412=(
CONVERSION_BASED_UNIT('DEGREE',#414)
NAMED_UNIT(#413)
PLANE_ANGLE_UNIT()
);
#413=DIMENSIONAL_EXPONENTS(0.,0.,0.,0.,0.,0.,0.);
#414=PLANE_ANGLE_MEASURE_WITH_UNIT(PLANE_ANGLE_MEASURE(0.0174532925),#415);
#415=(
NAMED_UNIT(*)
PLANE_ANGLE_UNIT()
SI_UNIT($,.RADIAN.)
);
#416=(
LENGTH_UNIT()
NAMED_UNIT(*)
SI_UNIT(.MILLI.,.METRE.)
);
ENDSEC;
END-ISO-10303-21;
