ISO-10303-21;
HEADER;
/* Generated by software containing ST-Developer
 * from STEP Tools, Inc. (www.steptools.com) 
 */
/* OPTION: using custom schema-name function */

FILE_DESCRIPTION(
/* description */ (''),
/* implementation_level */ '2;1');

FILE_NAME(
/* name */ 'n 02 025 0038 x.stp',
/* time_stamp */ '2018-09-25T11:34:08+02:00',
/* author */ (''),
/* organization */ (''),
/* preprocessor_version */ 'ST-DEVELOPER v16',
/* originating_system */ 'SIEMENS PLM Software NX 11.0',
/* authorisation */ '');

FILE_SCHEMA (('AUTOMOTIVE_DESIGN { 1 0 10303 214 3 1 1 1 }'));
ENDSEC;

DATA;
#10=SHAPE_REPRESENTATION_RELATIONSHIP('None',
'relationship between n 02 025 0038nxm001-02-None and n 02 025 0038nxm
001-02-None',#22,#11);
#11=ADVANCED_BREP_SHAPE_REPRESENTATION('n 02 025 0038nxm001-02-None',(#32),
#469);
#12=SHAPE_DEFINITION_REPRESENTATION(#13,#22);
#13=PRODUCT_DEFINITION_SHAPE('','',#14);
#14=PRODUCT_DEFINITION(' ','',#16,#15);
#15=PRODUCT_DEFINITION_CONTEXT('part definition',#21,'design');
#16=PRODUCT_DEFINITION_FORMATION_WITH_SPECIFIED_SOURCE(' ',' ',#18,
 .NOT_KNOWN.);
#17=PRODUCT_RELATED_PRODUCT_CATEGORY('part','',(#18));
#18=PRODUCT('n 02 025 0038nxm001-02','n 02 025 0038nxm001-02',' ',(#19));
#19=PRODUCT_CONTEXT(' ',#21,'mechanical');
#20=APPLICATION_PROTOCOL_DEFINITION('international standard',
'automotive_design',2010,#21);
#21=APPLICATION_CONTEXT(
'core data for automotive mechanical design processes');
#22=SHAPE_REPRESENTATION('n 02 025 0038nxm001-02-None',(#270),#469);
#23=PRESENTATION_LAYER_ASSIGNMENT('1','Layer 1',(#32));
#24=STYLED_ITEM('',(#25),#32);
#25=PRESENTATION_STYLE_ASSIGNMENT((#26));
#26=SURFACE_STYLE_USAGE(.BOTH.,#27);
#27=SURFACE_SIDE_STYLE('',(#28));
#28=SURFACE_STYLE_FILL_AREA(#29);
#29=FILL_AREA_STYLE('',(#30));
#30=FILL_AREA_STYLE_COLOUR('',#31);
#31=COLOUR_RGB('Mittleres Stahlblau',0.596063172350652,0.666666666666667,
0.686259250782025);
#32=MANIFOLD_SOLID_BREP('',#33);
#33=CLOSED_SHELL('',(#51,#52,#53,#54,#55,#56,#57,#58,#59,#60,#61,#62,#63,
#64,#65,#66,#67,#68,#69,#70,#71,#72));
#34=TOROIDAL_SURFACE('',#308,2.225,0.5);
#35=PLANE('',#302);
#36=PLANE('',#312);
#37=FACE_OUTER_BOUND('',#151,.T.);
#38=CONICAL_SURFACE('',#281,0.,70.0000000000001);
#39=CONICAL_SURFACE('',#285,1.48334329335407,8.54651923025997);
#40=CONICAL_SURFACE('',#287,1.21928517133877,21.45348076974);
#41=CONICAL_SURFACE('',#289,1.48702959702306,81.45348076974);
#42=CONICAL_SURFACE('',#290,1.73425347924874,8.54651923025999);
#43=CONICAL_SURFACE('',#292,2.1,44.9999999999999);
#44=CONICAL_SURFACE('',#293,2.25,45.0000000000001);
#45=CONICAL_SURFACE('',#295,2.1,45.0000000000001);
#46=CONICAL_SURFACE('',#296,2.25,44.9999999999999);
#47=CONICAL_SURFACE('',#298,2.1,45.0000000000001);
#48=CONICAL_SURFACE('',#300,2.25,45.0000000000001);
#49=CONICAL_SURFACE('',#306,2.25,60.0000000000001);
#50=VERTEX_LOOP('',#213);
#51=ADVANCED_FACE('',(#80,#81),#73,.T.);
#52=ADVANCED_FACE('',(#82,#83),#74,.T.);
#53=ADVANCED_FACE('',(#84,#85),#75,.T.);
#54=ADVANCED_FACE('',(#86,#87),#38,.F.);
#55=ADVANCED_FACE('',(#88,#89),#76,.F.);
#56=ADVANCED_FACE('',(#90,#91),#39,.F.);
#57=ADVANCED_FACE('',(#92,#93),#40,.F.);
#58=ADVANCED_FACE('',(#94,#95),#41,.F.);
#59=ADVANCED_FACE('',(#96,#97),#42,.T.);
#60=ADVANCED_FACE('',(#98,#99),#43,.T.);
#61=ADVANCED_FACE('',(#100,#101),#44,.T.);
#62=ADVANCED_FACE('',(#102,#103),#45,.T.);
#63=ADVANCED_FACE('',(#104,#105),#46,.T.);
#64=ADVANCED_FACE('',(#106,#107),#47,.T.);
#65=ADVANCED_FACE('',(#108,#109),#48,.T.);
#66=ADVANCED_FACE('',(#37),#35,.T.);
#67=ADVANCED_FACE('',(#110,#111),#77,.T.);
#68=ADVANCED_FACE('',(#112,#113),#49,.T.);
#69=ADVANCED_FACE('',(#114,#115),#34,.F.);
#70=ADVANCED_FACE('',(#116,#117),#78,.T.);
#71=ADVANCED_FACE('',(#118,#119),#36,.F.);
#72=ADVANCED_FACE('',(#120,#121),#79,.T.);
#73=CYLINDRICAL_SURFACE('',#273,2.25);
#74=CYLINDRICAL_SURFACE('',#276,2.25);
#75=CYLINDRICAL_SURFACE('',#279,2.25);
#76=CYLINDRICAL_SURFACE('',#283,1.5);
#77=CYLINDRICAL_SURFACE('',#304,2.25);
#78=CYLINDRICAL_SURFACE('',#310,1.725);
#79=CYLINDRICAL_SURFACE('',#313,2.25);
#80=FACE_BOUND('',#122,.T.);
#81=FACE_BOUND('',#123,.T.);
#82=FACE_BOUND('',#124,.T.);
#83=FACE_BOUND('',#125,.T.);
#84=FACE_BOUND('',#126,.T.);
#85=FACE_BOUND('',#127,.T.);
#86=FACE_BOUND('',#128,.T.);
#87=FACE_BOUND('',#50,.T.);
#88=FACE_BOUND('',#129,.T.);
#89=FACE_BOUND('',#130,.T.);
#90=FACE_BOUND('',#131,.T.);
#91=FACE_BOUND('',#132,.T.);
#92=FACE_BOUND('',#133,.T.);
#93=FACE_BOUND('',#134,.T.);
#94=FACE_BOUND('',#135,.T.);
#95=FACE_BOUND('',#136,.T.);
#96=FACE_BOUND('',#137,.T.);
#97=FACE_BOUND('',#138,.T.);
#98=FACE_BOUND('',#139,.T.);
#99=FACE_BOUND('',#140,.T.);
#100=FACE_BOUND('',#141,.T.);
#101=FACE_BOUND('',#142,.T.);
#102=FACE_BOUND('',#143,.T.);
#103=FACE_BOUND('',#144,.T.);
#104=FACE_BOUND('',#145,.T.);
#105=FACE_BOUND('',#146,.T.);
#106=FACE_BOUND('',#147,.T.);
#107=FACE_BOUND('',#148,.T.);
#108=FACE_BOUND('',#149,.T.);
#109=FACE_BOUND('',#150,.T.);
#110=FACE_BOUND('',#152,.T.);
#111=FACE_BOUND('',#153,.T.);
#112=FACE_BOUND('',#154,.T.);
#113=FACE_BOUND('',#155,.T.);
#114=FACE_BOUND('',#156,.T.);
#115=FACE_BOUND('',#157,.T.);
#116=FACE_BOUND('',#158,.T.);
#117=FACE_BOUND('',#159,.T.);
#118=FACE_BOUND('',#160,.T.);
#119=FACE_BOUND('',#161,.T.);
#120=FACE_BOUND('',#162,.T.);
#121=FACE_BOUND('',#163,.T.);
#122=EDGE_LOOP('',(#164));
#123=EDGE_LOOP('',(#165));
#124=EDGE_LOOP('',(#166));
#125=EDGE_LOOP('',(#167));
#126=EDGE_LOOP('',(#168));
#127=EDGE_LOOP('',(#169));
#128=EDGE_LOOP('',(#170));
#129=EDGE_LOOP('',(#171));
#130=EDGE_LOOP('',(#172));
#131=EDGE_LOOP('',(#173));
#132=EDGE_LOOP('',(#174));
#133=EDGE_LOOP('',(#175));
#134=EDGE_LOOP('',(#176));
#135=EDGE_LOOP('',(#177));
#136=EDGE_LOOP('',(#178));
#137=EDGE_LOOP('',(#179));
#138=EDGE_LOOP('',(#180));
#139=EDGE_LOOP('',(#181));
#140=EDGE_LOOP('',(#182));
#141=EDGE_LOOP('',(#183));
#142=EDGE_LOOP('',(#184));
#143=EDGE_LOOP('',(#185));
#144=EDGE_LOOP('',(#186));
#145=EDGE_LOOP('',(#187));
#146=EDGE_LOOP('',(#188));
#147=EDGE_LOOP('',(#189));
#148=EDGE_LOOP('',(#190));
#149=EDGE_LOOP('',(#191));
#150=EDGE_LOOP('',(#192));
#151=EDGE_LOOP('',(#193));
#152=EDGE_LOOP('',(#194));
#153=EDGE_LOOP('',(#195));
#154=EDGE_LOOP('',(#196));
#155=EDGE_LOOP('',(#197));
#156=EDGE_LOOP('',(#198));
#157=EDGE_LOOP('',(#199));
#158=EDGE_LOOP('',(#200));
#159=EDGE_LOOP('',(#201));
#160=EDGE_LOOP('',(#202));
#161=EDGE_LOOP('',(#203));
#162=EDGE_LOOP('',(#204));
#163=EDGE_LOOP('',(#205));
#164=ORIENTED_EDGE('',*,*,#228,.T.);
#165=ORIENTED_EDGE('',*,*,#229,.F.);
#166=ORIENTED_EDGE('',*,*,#230,.T.);
#167=ORIENTED_EDGE('',*,*,#231,.F.);
#168=ORIENTED_EDGE('',*,*,#232,.T.);
#169=ORIENTED_EDGE('',*,*,#233,.F.);
#170=ORIENTED_EDGE('',*,*,#234,.T.);
#171=ORIENTED_EDGE('',*,*,#235,.T.);
#172=ORIENTED_EDGE('',*,*,#234,.F.);
#173=ORIENTED_EDGE('',*,*,#236,.T.);
#174=ORIENTED_EDGE('',*,*,#235,.F.);
#175=ORIENTED_EDGE('',*,*,#237,.T.);
#176=ORIENTED_EDGE('',*,*,#236,.F.);
#177=ORIENTED_EDGE('',*,*,#238,.T.);
#178=ORIENTED_EDGE('',*,*,#237,.F.);
#179=ORIENTED_EDGE('',*,*,#233,.T.);
#180=ORIENTED_EDGE('',*,*,#238,.F.);
#181=ORIENTED_EDGE('',*,*,#232,.F.);
#182=ORIENTED_EDGE('',*,*,#239,.T.);
#183=ORIENTED_EDGE('',*,*,#239,.F.);
#184=ORIENTED_EDGE('',*,*,#231,.T.);
#185=ORIENTED_EDGE('',*,*,#230,.F.);
#186=ORIENTED_EDGE('',*,*,#240,.T.);
#187=ORIENTED_EDGE('',*,*,#240,.F.);
#188=ORIENTED_EDGE('',*,*,#229,.T.);
#189=ORIENTED_EDGE('',*,*,#228,.F.);
#190=ORIENTED_EDGE('',*,*,#241,.T.);
#191=ORIENTED_EDGE('',*,*,#241,.F.);
#192=ORIENTED_EDGE('',*,*,#242,.T.);
#193=ORIENTED_EDGE('',*,*,#243,.T.);
#194=ORIENTED_EDGE('',*,*,#244,.F.);
#195=ORIENTED_EDGE('',*,*,#243,.F.);
#196=ORIENTED_EDGE('',*,*,#245,.F.);
#197=ORIENTED_EDGE('',*,*,#244,.T.);
#198=ORIENTED_EDGE('',*,*,#246,.F.);
#199=ORIENTED_EDGE('',*,*,#245,.T.);
#200=ORIENTED_EDGE('',*,*,#246,.T.);
#201=ORIENTED_EDGE('',*,*,#247,.F.);
#202=ORIENTED_EDGE('',*,*,#248,.F.);
#203=ORIENTED_EDGE('',*,*,#247,.T.);
#204=ORIENTED_EDGE('',*,*,#242,.F.);
#205=ORIENTED_EDGE('',*,*,#248,.T.);
#206=VERTEX_POINT('',#404);
#207=VERTEX_POINT('',#406);
#208=VERTEX_POINT('',#409);
#209=VERTEX_POINT('',#411);
#210=VERTEX_POINT('',#414);
#211=VERTEX_POINT('',#416);
#212=VERTEX_POINT('',#419);
#213=VERTEX_POINT('',#420);
#214=VERTEX_POINT('',#423);
#215=VERTEX_POINT('',#426);
#216=VERTEX_POINT('',#429);
#217=VERTEX_POINT('',#432);
#218=VERTEX_POINT('',#436);
#219=VERTEX_POINT('',#440);
#220=VERTEX_POINT('',#444);
#221=VERTEX_POINT('',#447);
#222=VERTEX_POINT('',#450);
#223=VERTEX_POINT('',#453);
#224=VERTEX_POINT('',#456);
#225=VERTEX_POINT('',#459);
#226=VERTEX_POINT('',#462);
#227=VERTEX_POINT('',#465);
#228=EDGE_CURVE('',#206,#206,#249,.T.);
#229=EDGE_CURVE('',#207,#207,#250,.T.);
#230=EDGE_CURVE('',#208,#208,#251,.T.);
#231=EDGE_CURVE('',#209,#209,#252,.T.);
#232=EDGE_CURVE('',#210,#210,#253,.T.);
#233=EDGE_CURVE('',#211,#211,#254,.T.);
#234=EDGE_CURVE('',#212,#212,#255,.T.);
#235=EDGE_CURVE('',#214,#214,#256,.T.);
#236=EDGE_CURVE('',#215,#215,#257,.T.);
#237=EDGE_CURVE('',#216,#216,#258,.T.);
#238=EDGE_CURVE('',#217,#217,#259,.T.);
#239=EDGE_CURVE('',#218,#218,#260,.T.);
#240=EDGE_CURVE('',#219,#219,#261,.T.);
#241=EDGE_CURVE('',#220,#220,#262,.T.);
#242=EDGE_CURVE('',#221,#221,#263,.T.);
#243=EDGE_CURVE('',#222,#222,#264,.T.);
#244=EDGE_CURVE('',#223,#223,#265,.T.);
#245=EDGE_CURVE('',#224,#224,#266,.T.);
#246=EDGE_CURVE('',#225,#225,#267,.T.);
#247=EDGE_CURVE('',#226,#226,#268,.T.);
#248=EDGE_CURVE('',#227,#227,#269,.T.);
#249=CIRCLE('',#271,2.25);
#250=CIRCLE('',#272,2.25);
#251=CIRCLE('',#274,2.25);
#252=CIRCLE('',#275,2.25);
#253=CIRCLE('',#277,2.25);
#254=CIRCLE('',#278,2.25);
#255=CIRCLE('',#280,1.5);
#256=CIRCLE('',#282,1.5);
#257=CIRCLE('',#284,1.12128390981664);
#258=CIRCLE('',#286,1.48702959702306);
#259=CIRCLE('',#288,1.73425347924874);
#260=CIRCLE('',#291,2.1);
#261=CIRCLE('',#294,2.1);
#262=CIRCLE('',#297,2.1);
#263=CIRCLE('',#299,2.25);
#264=CIRCLE('',#301,2.25);
#265=CIRCLE('',#303,2.25);
#266=CIRCLE('',#305,1.975);
#267=CIRCLE('',#307,1.725);
#268=CIRCLE('',#309,1.725);
#269=CIRCLE('',#311,2.25);
#270=AXIS2_PLACEMENT_3D('',#402,#314,#315);
#271=AXIS2_PLACEMENT_3D('',#403,#316,#317);
#272=AXIS2_PLACEMENT_3D('',#405,#318,#319);
#273=AXIS2_PLACEMENT_3D('',#407,#320,#321);
#274=AXIS2_PLACEMENT_3D('',#408,#322,#323);
#275=AXIS2_PLACEMENT_3D('',#410,#324,#325);
#276=AXIS2_PLACEMENT_3D('',#412,#326,#327);
#277=AXIS2_PLACEMENT_3D('',#413,#328,#329);
#278=AXIS2_PLACEMENT_3D('',#415,#330,#331);
#279=AXIS2_PLACEMENT_3D('',#417,#332,#333);
#280=AXIS2_PLACEMENT_3D('',#418,#334,#335);
#281=AXIS2_PLACEMENT_3D('',#421,#336,#337);
#282=AXIS2_PLACEMENT_3D('',#422,#338,#339);
#283=AXIS2_PLACEMENT_3D('',#424,#340,#341);
#284=AXIS2_PLACEMENT_3D('',#425,#342,#343);
#285=AXIS2_PLACEMENT_3D('',#427,#344,#345);
#286=AXIS2_PLACEMENT_3D('',#428,#346,#347);
#287=AXIS2_PLACEMENT_3D('',#430,#348,#349);
#288=AXIS2_PLACEMENT_3D('',#431,#350,#351);
#289=AXIS2_PLACEMENT_3D('',#433,#352,#353);
#290=AXIS2_PLACEMENT_3D('',#434,#354,#355);
#291=AXIS2_PLACEMENT_3D('',#435,#356,#357);
#292=AXIS2_PLACEMENT_3D('',#437,#358,#359);
#293=AXIS2_PLACEMENT_3D('',#438,#360,#361);
#294=AXIS2_PLACEMENT_3D('',#439,#362,#363);
#295=AXIS2_PLACEMENT_3D('',#441,#364,#365);
#296=AXIS2_PLACEMENT_3D('',#442,#366,#367);
#297=AXIS2_PLACEMENT_3D('',#443,#368,#369);
#298=AXIS2_PLACEMENT_3D('',#445,#370,#371);
#299=AXIS2_PLACEMENT_3D('',#446,#372,#373);
#300=AXIS2_PLACEMENT_3D('',#448,#374,#375);
#301=AXIS2_PLACEMENT_3D('',#449,#376,#377);
#302=AXIS2_PLACEMENT_3D('',#451,#378,#379);
#303=AXIS2_PLACEMENT_3D('',#452,#380,#381);
#304=AXIS2_PLACEMENT_3D('',#454,#382,#383);
#305=AXIS2_PLACEMENT_3D('',#455,#384,#385);
#306=AXIS2_PLACEMENT_3D('',#457,#386,#387);
#307=AXIS2_PLACEMENT_3D('',#458,#388,#389);
#308=AXIS2_PLACEMENT_3D('',#460,#390,#391);
#309=AXIS2_PLACEMENT_3D('',#461,#392,#393);
#310=AXIS2_PLACEMENT_3D('',#463,#394,#395);
#311=AXIS2_PLACEMENT_3D('',#464,#396,#397);
#312=AXIS2_PLACEMENT_3D('',#466,#398,#399);
#313=AXIS2_PLACEMENT_3D('',#467,#400,#401);
#314=DIRECTION('',(0.,0.,1.));
#315=DIRECTION('',(1.,0.,0.));
#316=DIRECTION('',(0.,0.,-1.));
#317=DIRECTION('',(-1.,0.,0.));
#318=DIRECTION('',(0.,0.,-1.));
#319=DIRECTION('',(-1.,0.,0.));
#320=DIRECTION('',(0.,0.,-1.));
#321=DIRECTION('',(-1.,0.,0.));
#322=DIRECTION('',(0.,0.,-1.));
#323=DIRECTION('',(-1.,0.,0.));
#324=DIRECTION('',(0.,0.,-1.));
#325=DIRECTION('',(-1.,0.,0.));
#326=DIRECTION('',(0.,0.,-1.));
#327=DIRECTION('',(-1.,0.,0.));
#328=DIRECTION('',(0.,0.,-1.));
#329=DIRECTION('',(-1.,0.,0.));
#330=DIRECTION('',(0.,0.,-1.));
#331=DIRECTION('',(1.,0.,0.));
#332=DIRECTION('',(0.,0.,-1.));
#333=DIRECTION('',(-1.,0.,0.));
#334=DIRECTION('',(0.,0.,-1.));
#335=DIRECTION('',(-1.,0.,0.));
#336=DIRECTION('',(0.,0.,-1.));
#337=DIRECTION('',(-1.,0.,-3.15693854969179E-17));
#338=DIRECTION('',(0.,0.,-1.));
#339=DIRECTION('',(1.,0.,0.));
#340=DIRECTION('',(0.,0.,-1.));
#341=DIRECTION('',(-1.,0.,0.));
#342=DIRECTION('',(0.,0.,-1.));
#343=DIRECTION('',(-1.,0.,0.));
#344=DIRECTION('',(0.,0.,1.));
#345=DIRECTION('',(1.,0.,-3.31480569136699E-16));
#346=DIRECTION('',(0.,0.,-1.));
#347=DIRECTION('',(-1.,0.,0.));
#348=DIRECTION('',(0.,0.,-1.));
#349=DIRECTION('',(-1.,0.,-1.89230319499337E-16));
#350=DIRECTION('',(0.,0.,-1.));
#351=DIRECTION('',(-1.,0.,0.));
#352=DIRECTION('',(0.,0.,-1.));
#353=DIRECTION('',(-1.,0.,-6.25531186742186E-18));
#354=DIRECTION('',(0.,0.,1.));
#355=DIRECTION('',(1.,0.,-1.14114979776641E-17));
#356=DIRECTION('',(0.,0.,-1.));
#357=DIRECTION('',(-1.,0.,0.));
#358=DIRECTION('',(0.,0.,-1.));
#359=DIRECTION('',(-1.,0.,-3.63528520062998E-17));
#360=DIRECTION('',(0.,0.,1.));
#361=DIRECTION('',(1.,0.,-5.23575805919663E-17));
#362=DIRECTION('',(0.,0.,-1.));
#363=DIRECTION('',(-1.,0.,0.));
#364=DIRECTION('',(0.,0.,-1.));
#365=DIRECTION('',(-1.,0.,-1.01917817231947E-16));
#366=DIRECTION('',(0.,0.,1.));
#367=DIRECTION('',(1.,0.,-8.00508463596184E-18));
#368=DIRECTION('',(0.,0.,-1.));
#369=DIRECTION('',(-1.,0.,0.));
#370=DIRECTION('',(0.,0.,-1.));
#371=DIRECTION('',(-1.,0.,5.13916806636676E-17));
#372=DIRECTION('',(0.,0.,-1.));
#373=DIRECTION('',(-1.,0.,0.));
#374=DIRECTION('',(0.,0.,1.));
#375=DIRECTION('',(1.,0.,3.49952010774816E-17));
#376=DIRECTION('',(0.,0.,1.));
#377=DIRECTION('',(1.,0.,0.));
#378=DIRECTION('',(0.,0.,1.));
#379=DIRECTION('',(1.,0.,0.));
#380=DIRECTION('',(0.,0.,-1.));
#381=DIRECTION('',(-1.,0.,0.));
#382=DIRECTION('',(0.,0.,-1.));
#383=DIRECTION('',(-1.,0.,0.));
#384=DIRECTION('',(0.,0.,-1.));
#385=DIRECTION('',(-1.,0.,0.));
#386=DIRECTION('',(0.,0.,1.));
#387=DIRECTION('',(1.,0.,-8.00194968903238E-18));
#388=DIRECTION('',(0.,0.,-1.));
#389=DIRECTION('',(-1.,0.,0.));
#390=DIRECTION('',(0.,0.,-1.));
#391=DIRECTION('',(-1.,0.,0.));
#392=DIRECTION('',(0.,0.,-1.));
#393=DIRECTION('',(-1.,0.,0.));
#394=DIRECTION('',(0.,0.,-1.));
#395=DIRECTION('',(-1.,0.,0.));
#396=DIRECTION('',(0.,0.,-1.));
#397=DIRECTION('',(-1.,0.,0.));
#398=DIRECTION('',(0.,0.,-1.));
#399=DIRECTION('',(-1.,0.,0.));
#400=DIRECTION('',(0.,0.,-1.));
#401=DIRECTION('',(-1.,0.,0.));
#402=CARTESIAN_POINT('',(0.,0.,0.));
#403=CARTESIAN_POINT('',(0.,0.,-0.649999999999996));
#404=CARTESIAN_POINT('',(-2.25,0.,-0.649999999999996));
#405=CARTESIAN_POINT('',(0.,0.,-0.949999999999998));
#406=CARTESIAN_POINT('',(-2.25,0.,-0.949999999999998));
#407=CARTESIAN_POINT('',(0.,0.,7.2));
#408=CARTESIAN_POINT('',(0.,0.,-1.25));
#409=CARTESIAN_POINT('',(-2.25,0.,-1.25));
#410=CARTESIAN_POINT('',(0.,0.,-1.55));
#411=CARTESIAN_POINT('',(-2.25,0.,-1.55));
#412=CARTESIAN_POINT('',(0.,0.,7.2));
#413=CARTESIAN_POINT('',(0.,0.,-1.85));
#414=CARTESIAN_POINT('',(-2.25,0.,-1.85));
#415=CARTESIAN_POINT('',(0.,0.,-11.668122357551));
#416=CARTESIAN_POINT('',(2.25,0.,-11.668122357551));
#417=CARTESIAN_POINT('',(0.,0.,7.2));
#418=CARTESIAN_POINT('',(0.,0.,-4.9));
#419=CARTESIAN_POINT('',(-1.5,0.,-4.9));
#420=CARTESIAN_POINT('',(0.,0.,-4.3540446486007));
#421=CARTESIAN_POINT('',(0.,0.,-4.3540446486007));
#422=CARTESIAN_POINT('',(0.,0.,-11.6120815717007));
#423=CARTESIAN_POINT('',(1.5,0.,-11.6120815717007));
#424=CARTESIAN_POINT('',(0.,0.,0.));
#425=CARTESIAN_POINT('',(0.,0.,-14.1321320818675));
#426=CARTESIAN_POINT('',(-1.12128390981664,0.,-14.1321320818675));
#427=CARTESIAN_POINT('',(0.,0.,-11.7229185368279));
#428=CARTESIAN_POINT('',(0.,0.,-15.0628469105287));
#429=CARTESIAN_POINT('',(-1.48702959702306,0.,-15.0628469105287));
#430=CARTESIAN_POINT('',(0.,0.,-14.3815163685909));
#431=CARTESIAN_POINT('',(0.,0.,-15.1));
#432=CARTESIAN_POINT('',(-1.73425347924874,0.,-15.1));
#433=CARTESIAN_POINT('',(0.,0.,-15.0628469105287));
#434=CARTESIAN_POINT('',(0.,0.,-15.1));
#435=CARTESIAN_POINT('',(0.,0.,-1.7));
#436=CARTESIAN_POINT('',(-2.1,0.,-1.7));
#437=CARTESIAN_POINT('',(0.,0.,-1.7));
#438=CARTESIAN_POINT('',(0.,0.,-1.55));
#439=CARTESIAN_POINT('',(0.,0.,-1.1));
#440=CARTESIAN_POINT('',(-2.1,0.,-1.1));
#441=CARTESIAN_POINT('',(0.,0.,-1.1));
#442=CARTESIAN_POINT('',(0.,0.,-0.949999999999998));
#443=CARTESIAN_POINT('',(0.,0.,-0.499999999999996));
#444=CARTESIAN_POINT('',(-2.1,0.,-0.499999999999996));
#445=CARTESIAN_POINT('',(0.,0.,-0.499999999999996));
#446=CARTESIAN_POINT('',(0.,0.,-0.349999999999997));
#447=CARTESIAN_POINT('',(-2.25,0.,-0.349999999999997));
#448=CARTESIAN_POINT('',(0.,0.,-0.349999999999997));
#449=CARTESIAN_POINT('',(0.,0.,7.2));
#450=CARTESIAN_POINT('',(2.25,0.,7.2));
#451=CARTESIAN_POINT('',(0.,0.,7.2));
#452=CARTESIAN_POINT('',(-5.66369695085546E-16,0.,4.75877132402715));
#453=CARTESIAN_POINT('',(-2.25,0.,4.75877132402715));
#454=CARTESIAN_POINT('',(0.,0.,7.2));
#455=CARTESIAN_POINT('',(-5.66369695085546E-16,0.,4.6));
#456=CARTESIAN_POINT('',(-1.975,0.,4.6));
#457=CARTESIAN_POINT('',(-5.66369695085546E-16,0.,4.75877132402715));
#458=CARTESIAN_POINT('',(-5.66369695085546E-16,0.,4.16698729810778));
#459=CARTESIAN_POINT('',(-1.725,0.,4.16698729810778));
#460=CARTESIAN_POINT('',(-4.33680868994202E-16,0.,4.16698729810778));
#461=CARTESIAN_POINT('',(-5.66369695085546E-16,0.,0.));
#462=CARTESIAN_POINT('',(-1.725,0.,0.));
#463=CARTESIAN_POINT('',(-5.66369695085546E-16,0.,7.2));
#464=CARTESIAN_POINT('',(-5.66369695085546E-16,0.,0.));
#465=CARTESIAN_POINT('',(-2.25,0.,0.));
#466=CARTESIAN_POINT('',(1.725,0.,0.));
#467=CARTESIAN_POINT('',(0.,0.,7.2));
#468=MECHANICAL_DESIGN_GEOMETRIC_PRESENTATION_REPRESENTATION('',(#24),#469);
#469=(
GEOMETRIC_REPRESENTATION_CONTEXT(3)
GLOBAL_UNCERTAINTY_ASSIGNED_CONTEXT((#470))
GLOBAL_UNIT_ASSIGNED_CONTEXT((#476,#472,#471))
REPRESENTATION_CONTEXT('n 02 025 0038 x','TOP_LEVEL_ASSEMBLY_PART')
);
#470=UNCERTAINTY_MEASURE_WITH_UNIT(LENGTH_MEASURE(2.E-5),#476,
'DISTANCE_ACCURACY_VALUE','Maximum Tolerance applied to model');
#471=(
NAMED_UNIT(*)
SI_UNIT($,.STERADIAN.)
SOLID_ANGLE_UNIT()
);
#472=(
CONVERSION_BASED_UNIT('DEGREE',#474)
NAMED_UNIT(#473)
PLANE_ANGLE_UNIT()
);
#473=DIMENSIONAL_EXPONENTS(0.,0.,0.,0.,0.,0.,0.);
#474=PLANE_ANGLE_MEASURE_WITH_UNIT(PLANE_ANGLE_MEASURE(0.0174532925),#475);
#475=(
NAMED_UNIT(*)
PLANE_ANGLE_UNIT()
SI_UNIT($,.RADIAN.)
);
#476=(
LENGTH_UNIT()
NAMED_UNIT(*)
SI_UNIT(.MILLI.,.METRE.)
);
ENDSEC;
END-ISO-10303-21;
