ISO-10303-21;
HEADER;
/* Generated by software containing ST-Developer
 * from STEP Tools, Inc. (www.steptools.com) 
 */
/* OPTION: using custom schema-name function */

FILE_DESCRIPTION(
/* description */ (''),
/* implementation_level */ '2;1');

FILE_NAME(
/* name */ 'n 02 025 0039 x.stp',
/* time_stamp */ '2018-09-25T11:33:38+02:00',
/* author */ (''),
/* organization */ (''),
/* preprocessor_version */ 'ST-DEVELOPER v16',
/* originating_system */ 'SIEMENS PLM Software NX 11.0',
/* authorisation */ '');

FILE_SCHEMA (('AUTOMOTIVE_DESIGN { 1 0 10303 214 3 1 1 1 }'));
ENDSEC;

DATA;
#10=SHAPE_REPRESENTATION_RELATIONSHIP('None',
'relationship between n 02 025 0039nxm001-02-None and n 02 025 0039nxm
001-02-None',#22,#11);
#11=ADVANCED_BREP_SHAPE_REPRESENTATION('n 02 025 0039nxm001-02-None',(#32),
#269);
#12=SHAPE_DEFINITION_REPRESENTATION(#13,#22);
#13=PRODUCT_DEFINITION_SHAPE('','',#14);
#14=PRODUCT_DEFINITION(' ','',#16,#15);
#15=PRODUCT_DEFINITION_CONTEXT('part definition',#21,'design');
#16=PRODUCT_DEFINITION_FORMATION_WITH_SPECIFIED_SOURCE(' ',' ',#18,
 .NOT_KNOWN.);
#17=PRODUCT_RELATED_PRODUCT_CATEGORY('part','',(#18));
#18=PRODUCT('n 02 025 0039nxm001-02','n 02 025 0039nxm001-02',' ',(#19));
#19=PRODUCT_CONTEXT(' ',#21,'mechanical');
#20=APPLICATION_PROTOCOL_DEFINITION('international standard',
'automotive_design',2010,#21);
#21=APPLICATION_CONTEXT(
'core data for automotive mechanical design processes');
#22=SHAPE_REPRESENTATION('n 02 025 0039nxm001-02-None',(#160),#269);
#23=PRESENTATION_LAYER_ASSIGNMENT('1','Layer 1',(#32));
#24=STYLED_ITEM('',(#25),#32);
#25=PRESENTATION_STYLE_ASSIGNMENT((#26));
#26=SURFACE_STYLE_USAGE(.BOTH.,#27);
#27=SURFACE_SIDE_STYLE('',(#28));
#28=SURFACE_STYLE_FILL_AREA(#29);
#29=FILL_AREA_STYLE('',(#30));
#30=FILL_AREA_STYLE_COLOUR('',#31);
#31=COLOUR_RGB('Mittleres Stahlblau',0.596063172350652,0.666666666666667,
0.686259250782025);
#32=MANIFOLD_SOLID_BREP('',#33);
#33=CLOSED_SHELL('',(#44,#45,#46,#47,#48,#49,#50,#51,#52,#53,#54,#55));
#34=FACE_OUTER_BOUND('',#101,.T.);
#35=TOROIDAL_SURFACE('',#180,2.5,0.5);
#36=PLANE('',#178);
#37=PLANE('',#182);
#38=CONICAL_SURFACE('',#168,0.,70.0000000000001);
#39=CONICAL_SURFACE('',#172,1.48334329335407,8.54651923025997);
#40=CONICAL_SURFACE('',#174,1.21928517133877,21.45348076974);
#41=CONICAL_SURFACE('',#176,1.48702959702306,81.45348076974);
#42=CONICAL_SURFACE('',#177,1.73425347924874,8.54651923025999);
#43=VERTEX_LOOP('',#131);
#44=ADVANCED_FACE('',(#60,#61),#56,.T.);
#45=ADVANCED_FACE('',(#62,#63),#57,.T.);
#46=ADVANCED_FACE('',(#64,#65),#38,.F.);
#47=ADVANCED_FACE('',(#66,#67),#58,.F.);
#48=ADVANCED_FACE('',(#68,#69),#39,.F.);
#49=ADVANCED_FACE('',(#70,#71),#40,.F.);
#50=ADVANCED_FACE('',(#72,#73),#41,.F.);
#51=ADVANCED_FACE('',(#74,#75),#42,.T.);
#52=ADVANCED_FACE('',(#76,#77),#36,.F.);
#53=ADVANCED_FACE('',(#78,#79),#35,.F.);
#54=ADVANCED_FACE('',(#34),#37,.T.);
#55=ADVANCED_FACE('',(#80,#81),#59,.T.);
#56=CYLINDRICAL_SURFACE('',#163,2.);
#57=CYLINDRICAL_SURFACE('',#166,2.25);
#58=CYLINDRICAL_SURFACE('',#170,1.5);
#59=CYLINDRICAL_SURFACE('',#183,2.25);
#60=FACE_BOUND('',#82,.T.);
#61=FACE_BOUND('',#83,.T.);
#62=FACE_BOUND('',#84,.T.);
#63=FACE_BOUND('',#85,.T.);
#64=FACE_BOUND('',#86,.T.);
#65=FACE_BOUND('',#43,.T.);
#66=FACE_BOUND('',#87,.T.);
#67=FACE_BOUND('',#88,.T.);
#68=FACE_BOUND('',#89,.T.);
#69=FACE_BOUND('',#90,.T.);
#70=FACE_BOUND('',#91,.T.);
#71=FACE_BOUND('',#92,.T.);
#72=FACE_BOUND('',#93,.T.);
#73=FACE_BOUND('',#94,.T.);
#74=FACE_BOUND('',#95,.T.);
#75=FACE_BOUND('',#96,.T.);
#76=FACE_BOUND('',#97,.T.);
#77=FACE_BOUND('',#98,.T.);
#78=FACE_BOUND('',#99,.T.);
#79=FACE_BOUND('',#100,.T.);
#80=FACE_BOUND('',#102,.T.);
#81=FACE_BOUND('',#103,.T.);
#82=EDGE_LOOP('',(#104));
#83=EDGE_LOOP('',(#105));
#84=EDGE_LOOP('',(#106));
#85=EDGE_LOOP('',(#107));
#86=EDGE_LOOP('',(#108));
#87=EDGE_LOOP('',(#109));
#88=EDGE_LOOP('',(#110));
#89=EDGE_LOOP('',(#111));
#90=EDGE_LOOP('',(#112));
#91=EDGE_LOOP('',(#113));
#92=EDGE_LOOP('',(#114));
#93=EDGE_LOOP('',(#115));
#94=EDGE_LOOP('',(#116));
#95=EDGE_LOOP('',(#117));
#96=EDGE_LOOP('',(#118));
#97=EDGE_LOOP('',(#119));
#98=EDGE_LOOP('',(#120));
#99=EDGE_LOOP('',(#121));
#100=EDGE_LOOP('',(#122));
#101=EDGE_LOOP('',(#123));
#102=EDGE_LOOP('',(#124));
#103=EDGE_LOOP('',(#125));
#104=ORIENTED_EDGE('',*,*,#138,.T.);
#105=ORIENTED_EDGE('',*,*,#139,.F.);
#106=ORIENTED_EDGE('',*,*,#140,.T.);
#107=ORIENTED_EDGE('',*,*,#141,.F.);
#108=ORIENTED_EDGE('',*,*,#142,.T.);
#109=ORIENTED_EDGE('',*,*,#143,.T.);
#110=ORIENTED_EDGE('',*,*,#142,.F.);
#111=ORIENTED_EDGE('',*,*,#144,.T.);
#112=ORIENTED_EDGE('',*,*,#143,.F.);
#113=ORIENTED_EDGE('',*,*,#145,.T.);
#114=ORIENTED_EDGE('',*,*,#144,.F.);
#115=ORIENTED_EDGE('',*,*,#146,.T.);
#116=ORIENTED_EDGE('',*,*,#145,.F.);
#117=ORIENTED_EDGE('',*,*,#141,.T.);
#118=ORIENTED_EDGE('',*,*,#146,.F.);
#119=ORIENTED_EDGE('',*,*,#140,.F.);
#120=ORIENTED_EDGE('',*,*,#139,.T.);
#121=ORIENTED_EDGE('',*,*,#138,.F.);
#122=ORIENTED_EDGE('',*,*,#147,.T.);
#123=ORIENTED_EDGE('',*,*,#148,.T.);
#124=ORIENTED_EDGE('',*,*,#147,.F.);
#125=ORIENTED_EDGE('',*,*,#148,.F.);
#126=VERTEX_POINT('',#234);
#127=VERTEX_POINT('',#236);
#128=VERTEX_POINT('',#239);
#129=VERTEX_POINT('',#241);
#130=VERTEX_POINT('',#244);
#131=VERTEX_POINT('',#245);
#132=VERTEX_POINT('',#248);
#133=VERTEX_POINT('',#251);
#134=VERTEX_POINT('',#254);
#135=VERTEX_POINT('',#257);
#136=VERTEX_POINT('',#262);
#137=VERTEX_POINT('',#265);
#138=EDGE_CURVE('',#126,#126,#149,.T.);
#139=EDGE_CURVE('',#127,#127,#150,.T.);
#140=EDGE_CURVE('',#128,#128,#151,.T.);
#141=EDGE_CURVE('',#129,#129,#152,.T.);
#142=EDGE_CURVE('',#130,#130,#153,.T.);
#143=EDGE_CURVE('',#132,#132,#154,.T.);
#144=EDGE_CURVE('',#133,#133,#155,.T.);
#145=EDGE_CURVE('',#134,#134,#156,.T.);
#146=EDGE_CURVE('',#135,#135,#157,.T.);
#147=EDGE_CURVE('',#136,#136,#158,.T.);
#148=EDGE_CURVE('',#137,#137,#159,.T.);
#149=CIRCLE('',#161,2.);
#150=CIRCLE('',#162,2.);
#151=CIRCLE('',#164,2.25);
#152=CIRCLE('',#165,2.25);
#153=CIRCLE('',#167,1.5);
#154=CIRCLE('',#169,1.5);
#155=CIRCLE('',#171,1.12128390981664);
#156=CIRCLE('',#173,1.48702959702306);
#157=CIRCLE('',#175,1.73425347924874);
#158=CIRCLE('',#179,2.25);
#159=CIRCLE('',#181,2.25);
#160=AXIS2_PLACEMENT_3D('',#232,#184,#185);
#161=AXIS2_PLACEMENT_3D('',#233,#186,#187);
#162=AXIS2_PLACEMENT_3D('',#235,#188,#189);
#163=AXIS2_PLACEMENT_3D('',#237,#190,#191);
#164=AXIS2_PLACEMENT_3D('',#238,#192,#193);
#165=AXIS2_PLACEMENT_3D('',#240,#194,#195);
#166=AXIS2_PLACEMENT_3D('',#242,#196,#197);
#167=AXIS2_PLACEMENT_3D('',#243,#198,#199);
#168=AXIS2_PLACEMENT_3D('',#246,#200,#201);
#169=AXIS2_PLACEMENT_3D('',#247,#202,#203);
#170=AXIS2_PLACEMENT_3D('',#249,#204,#205);
#171=AXIS2_PLACEMENT_3D('',#250,#206,#207);
#172=AXIS2_PLACEMENT_3D('',#252,#208,#209);
#173=AXIS2_PLACEMENT_3D('',#253,#210,#211);
#174=AXIS2_PLACEMENT_3D('',#255,#212,#213);
#175=AXIS2_PLACEMENT_3D('',#256,#214,#215);
#176=AXIS2_PLACEMENT_3D('',#258,#216,#217);
#177=AXIS2_PLACEMENT_3D('',#259,#218,#219);
#178=AXIS2_PLACEMENT_3D('',#260,#220,#221);
#179=AXIS2_PLACEMENT_3D('',#261,#222,#223);
#180=AXIS2_PLACEMENT_3D('',#263,#224,#225);
#181=AXIS2_PLACEMENT_3D('',#264,#226,#227);
#182=AXIS2_PLACEMENT_3D('',#266,#228,#229);
#183=AXIS2_PLACEMENT_3D('',#267,#230,#231);
#184=DIRECTION('',(0.,0.,1.));
#185=DIRECTION('',(1.,0.,0.));
#186=DIRECTION('',(0.,0.,-1.));
#187=DIRECTION('',(-1.,0.,0.));
#188=DIRECTION('',(0.,0.,-1.));
#189=DIRECTION('',(-1.,0.,0.));
#190=DIRECTION('',(0.,0.,-1.));
#191=DIRECTION('',(-1.,0.,0.));
#192=DIRECTION('',(0.,0.,-1.));
#193=DIRECTION('',(-1.,0.,0.));
#194=DIRECTION('',(0.,0.,-1.));
#195=DIRECTION('',(1.,0.,0.));
#196=DIRECTION('',(0.,0.,-1.));
#197=DIRECTION('',(-1.,0.,0.));
#198=DIRECTION('',(0.,0.,-1.));
#199=DIRECTION('',(-1.,0.,0.));
#200=DIRECTION('',(0.,0.,-1.));
#201=DIRECTION('',(-1.,0.,-3.15693854969179E-17));
#202=DIRECTION('',(0.,0.,-1.));
#203=DIRECTION('',(1.,0.,0.));
#204=DIRECTION('',(0.,0.,-1.));
#205=DIRECTION('',(-1.,0.,0.));
#206=DIRECTION('',(0.,0.,-1.));
#207=DIRECTION('',(-1.,0.,0.));
#208=DIRECTION('',(0.,0.,1.));
#209=DIRECTION('',(1.,0.,-3.31480569136699E-16));
#210=DIRECTION('',(0.,0.,-1.));
#211=DIRECTION('',(-1.,0.,0.));
#212=DIRECTION('',(0.,0.,-1.));
#213=DIRECTION('',(-1.,0.,-1.89230319499337E-16));
#214=DIRECTION('',(0.,0.,-1.));
#215=DIRECTION('',(-1.,0.,0.));
#216=DIRECTION('',(0.,0.,-1.));
#217=DIRECTION('',(-1.,0.,-6.25531186742186E-18));
#218=DIRECTION('',(0.,0.,1.));
#219=DIRECTION('',(1.,0.,-1.14114979776641E-17));
#220=DIRECTION('',(0.,0.,-1.));
#221=DIRECTION('',(-1.,0.,0.));
#222=DIRECTION('',(0.,0.,-1.));
#223=DIRECTION('',(-1.,0.,0.));
#224=DIRECTION('',(0.,0.,-1.));
#225=DIRECTION('',(-1.,0.,0.));
#226=DIRECTION('',(0.,0.,1.));
#227=DIRECTION('',(1.,0.,0.));
#228=DIRECTION('',(0.,0.,1.));
#229=DIRECTION('',(1.,0.,0.));
#230=DIRECTION('',(0.,0.,-1.));
#231=DIRECTION('',(-1.,0.,0.));
#232=CARTESIAN_POINT('',(0.,0.,0.));
#233=CARTESIAN_POINT('',(-5.66369695085546E-16,0.,4.16698729810778));
#234=CARTESIAN_POINT('',(-2.,0.,4.16698729810778));
#235=CARTESIAN_POINT('',(-5.66369695085546E-16,0.,0.));
#236=CARTESIAN_POINT('',(-2.,0.,0.));
#237=CARTESIAN_POINT('',(-5.66369695085546E-16,0.,7.2));
#238=CARTESIAN_POINT('',(-5.66369695085546E-16,0.,0.));
#239=CARTESIAN_POINT('',(-2.25,0.,0.));
#240=CARTESIAN_POINT('',(0.,0.,-11.668122357551));
#241=CARTESIAN_POINT('',(2.25,0.,-11.668122357551));
#242=CARTESIAN_POINT('',(0.,0.,7.2));
#243=CARTESIAN_POINT('',(0.,0.,-4.9));
#244=CARTESIAN_POINT('',(-1.5,0.,-4.9));
#245=CARTESIAN_POINT('',(0.,0.,-4.3540446486007));
#246=CARTESIAN_POINT('',(0.,0.,-4.3540446486007));
#247=CARTESIAN_POINT('',(0.,0.,-11.6120815717007));
#248=CARTESIAN_POINT('',(1.5,0.,-11.6120815717007));
#249=CARTESIAN_POINT('',(0.,0.,0.));
#250=CARTESIAN_POINT('',(0.,0.,-14.1321320818675));
#251=CARTESIAN_POINT('',(-1.12128390981664,0.,-14.1321320818675));
#252=CARTESIAN_POINT('',(0.,0.,-11.7229185368279));
#253=CARTESIAN_POINT('',(0.,0.,-15.0628469105287));
#254=CARTESIAN_POINT('',(-1.48702959702306,0.,-15.0628469105287));
#255=CARTESIAN_POINT('',(0.,0.,-14.3815163685909));
#256=CARTESIAN_POINT('',(0.,0.,-15.1));
#257=CARTESIAN_POINT('',(-1.73425347924874,0.,-15.1));
#258=CARTESIAN_POINT('',(0.,0.,-15.0628469105287));
#259=CARTESIAN_POINT('',(0.,0.,-15.1));
#260=CARTESIAN_POINT('',(2.,0.,0.));
#261=CARTESIAN_POINT('',(-5.66369695085546E-16,0.,4.6));
#262=CARTESIAN_POINT('',(-2.25,0.,4.6));
#263=CARTESIAN_POINT('',(-4.33680868994202E-16,0.,4.16698729810778));
#264=CARTESIAN_POINT('',(0.,0.,7.2));
#265=CARTESIAN_POINT('',(2.25,0.,7.2));
#266=CARTESIAN_POINT('',(0.,0.,7.2));
#267=CARTESIAN_POINT('',(0.,0.,7.2));
#268=MECHANICAL_DESIGN_GEOMETRIC_PRESENTATION_REPRESENTATION('',(#24),#269);
#269=(
GEOMETRIC_REPRESENTATION_CONTEXT(3)
GLOBAL_UNCERTAINTY_ASSIGNED_CONTEXT((#270))
GLOBAL_UNIT_ASSIGNED_CONTEXT((#276,#272,#271))
REPRESENTATION_CONTEXT('n 02 025 0039 x','TOP_LEVEL_ASSEMBLY_PART')
);
#270=UNCERTAINTY_MEASURE_WITH_UNIT(LENGTH_MEASURE(2.E-5),#276,
'DISTANCE_ACCURACY_VALUE','Maximum Tolerance applied to model');
#271=(
NAMED_UNIT(*)
SI_UNIT($,.STERADIAN.)
SOLID_ANGLE_UNIT()
);
#272=(
CONVERSION_BASED_UNIT('DEGREE',#274)
NAMED_UNIT(#273)
PLANE_ANGLE_UNIT()
);
#273=DIMENSIONAL_EXPONENTS(0.,0.,0.,0.,0.,0.,0.);
#274=PLANE_ANGLE_MEASURE_WITH_UNIT(PLANE_ANGLE_MEASURE(0.0174532925),#275);
#275=(
NAMED_UNIT(*)
PLANE_ANGLE_UNIT()
SI_UNIT($,.RADIAN.)
);
#276=(
LENGTH_UNIT()
NAMED_UNIT(*)
SI_UNIT(.MILLI.,.METRE.)
);
ENDSEC;
END-ISO-10303-21;
