ISO-10303-21;
HEADER;
/* Generated by software containing ST-Developer
 * from STEP Tools, Inc. (www.steptools.com) 
 */
/* OPTION: using custom schema-name function */

FILE_DESCRIPTION(
/* description */ (''),
/* implementation_level */ '2;1');

FILE_NAME(
/* name */ 'C3D_VN13_040_0008_1X_Rev05.stp',
/* time_stamp */ '2016-07-14T10:06:14+02:00',
/* author */ (''),
/* organization */ (''),
/* preprocessor_version */ 'ST-DEVELOPER v15',
/* originating_system */ 'SIEMENS PLM Software NX 9.0',
/* authorisation */ '');

FILE_SCHEMA (('CONFIG_CONTROL_DESIGN'));
ENDSEC;

DATA;
#10=SHAPE_REPRESENTATION_RELATIONSHIP('None',
'relationship between n 13 040 0008 xnxm001-05-None and n 13 040 0008 
xnxm001-05-None',#92,#11);
#11=ADVANCED_BREP_SHAPE_REPRESENTATION('n 13 040 0008 xnxm001-05-None',
(#93),#579);
#12=CC_DESIGN_APPROVAL(#24,(#82));
#13=CC_DESIGN_APPROVAL(#25,(#84));
#14=CC_DESIGN_APPROVAL(#26,(#31));
#15=APPROVAL_PERSON_ORGANIZATION(#69,#24,#18);
#16=APPROVAL_PERSON_ORGANIZATION(#70,#25,#19);
#17=APPROVAL_PERSON_ORGANIZATION(#71,#26,#20);
#18=APPROVAL_ROLE('approver');
#19=APPROVAL_ROLE('approver');
#20=APPROVAL_ROLE('approver');
#21=APPROVAL_DATE_TIME(#39,#24);
#22=APPROVAL_DATE_TIME(#40,#25);
#23=APPROVAL_DATE_TIME(#41,#26);
#24=APPROVAL(#27,' ');
#25=APPROVAL(#28,' ');
#26=APPROVAL(#29,' ');
#27=APPROVAL_STATUS('not_yet_approved');
#28=APPROVAL_STATUS('not_yet_approved');
#29=APPROVAL_STATUS('not_yet_approved');
#30=CC_DESIGN_SECURITY_CLASSIFICATION(#31,(#84));
#31=SECURITY_CLASSIFICATION(' ',' ',#32);
#32=SECURITY_CLASSIFICATION_LEVEL('confidential');
#33=CC_DESIGN_DATE_AND_TIME_ASSIGNMENT(#37,#35,(#82));
#34=CC_DESIGN_DATE_AND_TIME_ASSIGNMENT(#38,#36,(#31));
#35=DATE_TIME_ROLE('creation_date');
#36=DATE_TIME_ROLE('classification_date');
#37=DATE_AND_TIME(#52,#42);
#38=DATE_AND_TIME(#53,#43);
#39=DATE_AND_TIME(#54,#44);
#40=DATE_AND_TIME(#55,#45);
#41=DATE_AND_TIME(#56,#46);
#42=LOCAL_TIME(0,0,0.,#47);
#43=LOCAL_TIME(0,0,0.,#48);
#44=LOCAL_TIME(0,0,0.,#49);
#45=LOCAL_TIME(0,0,0.,#50);
#46=LOCAL_TIME(0,0,0.,#51);
#47=COORDINATED_UNIVERSAL_TIME_OFFSET(0,0,.BEHIND.);
#48=COORDINATED_UNIVERSAL_TIME_OFFSET(0,0,.BEHIND.);
#49=COORDINATED_UNIVERSAL_TIME_OFFSET(0,0,.BEHIND.);
#50=COORDINATED_UNIVERSAL_TIME_OFFSET(0,0,.BEHIND.);
#51=COORDINATED_UNIVERSAL_TIME_OFFSET(0,0,.BEHIND.);
#52=CALENDAR_DATE(0,1,1);
#53=CALENDAR_DATE(0,1,1);
#54=CALENDAR_DATE(0,1,1);
#55=CALENDAR_DATE(0,1,1);
#56=CALENDAR_DATE(0,1,1);
#57=CC_DESIGN_PERSON_AND_ORGANIZATION_ASSIGNMENT(#65,#61,(#82,#84));
#58=CC_DESIGN_PERSON_AND_ORGANIZATION_ASSIGNMENT(#66,#62,(#86));
#59=CC_DESIGN_PERSON_AND_ORGANIZATION_ASSIGNMENT(#67,#63,(#84));
#60=CC_DESIGN_PERSON_AND_ORGANIZATION_ASSIGNMENT(#68,#64,(#31));
#61=PERSON_AND_ORGANIZATION_ROLE('creator');
#62=PERSON_AND_ORGANIZATION_ROLE('design_owner');
#63=PERSON_AND_ORGANIZATION_ROLE('design_supplier');
#64=PERSON_AND_ORGANIZATION_ROLE('classification_officer');
#65=PERSON_AND_ORGANIZATION(#79,#72);
#66=PERSON_AND_ORGANIZATION(#79,#73);
#67=PERSON_AND_ORGANIZATION(#79,#74);
#68=PERSON_AND_ORGANIZATION(#79,#75);
#69=PERSON_AND_ORGANIZATION(#79,#76);
#70=PERSON_AND_ORGANIZATION(#79,#77);
#71=PERSON_AND_ORGANIZATION(#79,#78);
#72=ORGANIZATION(' ',' ',' ');
#73=ORGANIZATION(' ',' ',' ');
#74=ORGANIZATION(' ',' ',' ');
#75=ORGANIZATION(' ',' ',' ');
#76=ORGANIZATION(' ',' ',' ');
#77=ORGANIZATION(' ',' ',' ');
#78=ORGANIZATION(' ',' ',' ');
#79=PERSON(' ',' ',' ',(' '),$,$);
#80=SHAPE_DEFINITION_REPRESENTATION(#81,#92);
#81=PRODUCT_DEFINITION_SHAPE('','',#82);
#82=PRODUCT_DEFINITION(' ','',#84,#83);
#83=DESIGN_CONTEXT('',#91,'design');
#84=PRODUCT_DEFINITION_FORMATION_WITH_SPECIFIED_SOURCE(' ',' ',#86,
 .NOT_KNOWN.);
#85=PRODUCT_RELATED_PRODUCT_CATEGORY('detail','',(#86));
#86=PRODUCT('n 13 040 0008 xnxm001-05','n 13 040 0008 xnxm001-05',' ',(#89));
#87=PRODUCT_CATEGORY('part',' ');
#88=PRODUCT_CATEGORY(' ','');
#89=MECHANICAL_CONTEXT(' ',#91,'mechanical');
#90=APPLICATION_PROTOCOL_DEFINITION('international standard',
'config_control_design',2010,#91);
#91=APPLICATION_CONTEXT(
'configuration controlled 3D designs of mechanical parts and assemblie
s');
#92=SHAPE_REPRESENTATION('n 13 040 0008 xnxm001-05-None',(#365),#579);
#93=MANIFOLD_SOLID_BREP('',#94);
#94=CLOSED_SHELL('',(#150,#151,#152,#153,#154,#155,#156,#157,#158,#159,
#160,#161,#162,#163,#164,#165,#166,#167));
#95=CONICAL_SURFACE('',#379,2.75000000000002,45.0000000000001);
#96=CONICAL_SURFACE('',#382,2.75000000000002,45.0000000000001);
#97=CONICAL_SURFACE('',#393,1.5,30.0000000000002);
#98=B_SPLINE_CURVE_WITH_KNOTS('',3,(#518,#519,#520,#521),.UNSPECIFIED.,
 .F.,.F.,(4,4),(0.,1.),.UNSPECIFIED.);
#99=B_SPLINE_CURVE_WITH_KNOTS('',3,(#523,#524,#525,#526),.UNSPECIFIED.,
 .F.,.F.,(4,4),(0.,1.),.UNSPECIFIED.);
#100=B_SPLINE_CURVE_WITH_KNOTS('',3,(#530,#531,#532,#533),.UNSPECIFIED.,
 .F.,.F.,(4,4),(0.,1.),.UNSPECIFIED.);
#101=B_SPLINE_CURVE_WITH_KNOTS('',3,(#538,#539,#540,#541),.UNSPECIFIED.,
 .F.,.F.,(4,4),(0.,1.),.UNSPECIFIED.);
#102=CYLINDRICAL_SURFACE('',#375,3.25);
#103=CYLINDRICAL_SURFACE('',#385,2.25000000000002);
#104=CYLINDRICAL_SURFACE('',#388,1.125);
#105=CYLINDRICAL_SURFACE('',#392,1.5);
#106=LINE('',#495,#122);
#107=LINE('',#500,#123);
#108=LINE('',#504,#124);
#109=LINE('',#508,#125);
#110=LINE('',#512,#126);
#111=LINE('',#514,#127);
#112=LINE('',#545,#128);
#113=LINE('',#547,#129);
#114=LINE('',#551,#130);
#115=LINE('',#552,#131);
#116=LINE('',#562,#132);
#117=LINE('',#563,#133);
#118=LINE('',#569,#134);
#119=LINE('',#570,#135);
#120=LINE('',#574,#136);
#121=LINE('',#576,#137);
#122=VECTOR('',#412,1.);
#123=VECTOR('',#415,1.);
#124=VECTOR('',#418,1.);
#125=VECTOR('',#421,1.);
#126=VECTOR('',#426,1.);
#127=VECTOR('',#427,1.);
#128=VECTOR('',#442,1.);
#129=VECTOR('',#443,1.);
#130=VECTOR('',#446,1.);
#131=VECTOR('',#447,1.);
#132=VECTOR('',#460,1.);
#133=VECTOR('',#461,1.);
#134=VECTOR('',#470,1.);
#135=VECTOR('',#471,1.);
#136=VECTOR('',#478,1.);
#137=VECTOR('',#481,1.);
#138=FACE_BOUND('',#193,.T.);
#139=FACE_BOUND('',#194,.T.);
#140=FACE_BOUND('',#198,.T.);
#141=FACE_BOUND('',#199,.T.);
#142=FACE_BOUND('',#200,.T.);
#143=FACE_BOUND('',#201,.T.);
#144=FACE_BOUND('',#202,.T.);
#145=FACE_BOUND('',#203,.T.);
#146=FACE_BOUND('',#205,.T.);
#147=FACE_BOUND('',#206,.T.);
#148=FACE_BOUND('',#207,.T.);
#149=FACE_BOUND('',#208,.T.);
#150=ADVANCED_FACE('',(#179),#168,.T.);
#151=ADVANCED_FACE('',(#180),#169,.F.);
#152=ADVANCED_FACE('',(#138,#139),#102,.T.);
#153=ADVANCED_FACE('',(#181),#170,.F.);
#154=ADVANCED_FACE('',(#182),#95,.F.);
#155=ADVANCED_FACE('',(#183),#96,.F.);
#156=ADVANCED_FACE('',(#140,#141),#103,.F.);
#157=ADVANCED_FACE('',(#142,#143),#104,.T.);
#158=ADVANCED_FACE('',(#144,#145),#171,.F.);
#159=ADVANCED_FACE('',(#184),#172,.F.);
#160=ADVANCED_FACE('',(#146,#147),#105,.T.);
#161=ADVANCED_FACE('',(#148,#149),#97,.T.);
#162=ADVANCED_FACE('',(#185),#173,.F.);
#163=ADVANCED_FACE('',(#186),#174,.T.);
#164=ADVANCED_FACE('',(#187),#175,.T.);
#165=ADVANCED_FACE('',(#188),#176,.T.);
#166=ADVANCED_FACE('',(#189),#177,.T.);
#167=ADVANCED_FACE('',(#190),#178,.F.);
#168=PLANE('',#367);
#169=PLANE('',#369);
#170=PLANE('',#377);
#171=PLANE('',#389);
#172=PLANE('',#390);
#173=PLANE('',#394);
#174=PLANE('',#395);
#175=PLANE('',#396);
#176=PLANE('',#397);
#177=PLANE('',#398);
#178=PLANE('',#399);
#179=FACE_OUTER_BOUND('',#191,.T.);
#180=FACE_OUTER_BOUND('',#192,.T.);
#181=FACE_OUTER_BOUND('',#195,.T.);
#182=FACE_OUTER_BOUND('',#196,.T.);
#183=FACE_OUTER_BOUND('',#197,.T.);
#184=FACE_OUTER_BOUND('',#204,.T.);
#185=FACE_OUTER_BOUND('',#209,.T.);
#186=FACE_OUTER_BOUND('',#210,.T.);
#187=FACE_OUTER_BOUND('',#211,.T.);
#188=FACE_OUTER_BOUND('',#212,.T.);
#189=FACE_OUTER_BOUND('',#213,.T.);
#190=FACE_OUTER_BOUND('',#214,.T.);
#191=EDGE_LOOP('',(#215));
#192=EDGE_LOOP('',(#216));
#193=EDGE_LOOP('',(#217));
#194=EDGE_LOOP('',(#218,#219,#220,#221,#222,#223,#224,#225));
#195=EDGE_LOOP('',(#226,#227,#228,#229));
#196=EDGE_LOOP('',(#230,#231,#232,#233));
#197=EDGE_LOOP('',(#234,#235,#236,#237));
#198=EDGE_LOOP('',(#238));
#199=EDGE_LOOP('',(#239,#240,#241,#242,#243,#244,#245,#246));
#200=EDGE_LOOP('',(#247));
#201=EDGE_LOOP('',(#248));
#202=EDGE_LOOP('',(#249));
#203=EDGE_LOOP('',(#250));
#204=EDGE_LOOP('',(#251,#252,#253,#254));
#205=EDGE_LOOP('',(#255));
#206=EDGE_LOOP('',(#256));
#207=EDGE_LOOP('',(#257));
#208=EDGE_LOOP('',(#258));
#209=EDGE_LOOP('',(#259,#260,#261,#262));
#210=EDGE_LOOP('',(#263,#264,#265,#266,#267));
#211=EDGE_LOOP('',(#268,#269,#270,#271,#272));
#212=EDGE_LOOP('',(#273,#274,#275,#276,#277));
#213=EDGE_LOOP('',(#278,#279,#280,#281,#282));
#214=EDGE_LOOP('',(#283,#284,#285,#286));
#215=ORIENTED_EDGE('',*,*,#313,.T.);
#216=ORIENTED_EDGE('',*,*,#314,.T.);
#217=ORIENTED_EDGE('',*,*,#315,.T.);
#218=ORIENTED_EDGE('',*,*,#316,.F.);
#219=ORIENTED_EDGE('',*,*,#317,.T.);
#220=ORIENTED_EDGE('',*,*,#318,.F.);
#221=ORIENTED_EDGE('',*,*,#319,.T.);
#222=ORIENTED_EDGE('',*,*,#320,.F.);
#223=ORIENTED_EDGE('',*,*,#321,.T.);
#224=ORIENTED_EDGE('',*,*,#322,.F.);
#225=ORIENTED_EDGE('',*,*,#323,.T.);
#226=ORIENTED_EDGE('',*,*,#324,.T.);
#227=ORIENTED_EDGE('',*,*,#323,.F.);
#228=ORIENTED_EDGE('',*,*,#325,.T.);
#229=ORIENTED_EDGE('',*,*,#326,.F.);
#230=ORIENTED_EDGE('',*,*,#327,.F.);
#231=ORIENTED_EDGE('',*,*,#326,.T.);
#232=ORIENTED_EDGE('',*,*,#328,.F.);
#233=ORIENTED_EDGE('',*,*,#329,.F.);
#234=ORIENTED_EDGE('',*,*,#330,.F.);
#235=ORIENTED_EDGE('',*,*,#331,.T.);
#236=ORIENTED_EDGE('',*,*,#332,.F.);
#237=ORIENTED_EDGE('',*,*,#333,.F.);
#238=ORIENTED_EDGE('',*,*,#313,.F.);
#239=ORIENTED_EDGE('',*,*,#334,.F.);
#240=ORIENTED_EDGE('',*,*,#329,.T.);
#241=ORIENTED_EDGE('',*,*,#335,.F.);
#242=ORIENTED_EDGE('',*,*,#336,.T.);
#243=ORIENTED_EDGE('',*,*,#337,.F.);
#244=ORIENTED_EDGE('',*,*,#333,.T.);
#245=ORIENTED_EDGE('',*,*,#338,.F.);
#246=ORIENTED_EDGE('',*,*,#339,.T.);
#247=ORIENTED_EDGE('',*,*,#340,.F.);
#248=ORIENTED_EDGE('',*,*,#341,.T.);
#249=ORIENTED_EDGE('',*,*,#340,.T.);
#250=ORIENTED_EDGE('',*,*,#315,.F.);
#251=ORIENTED_EDGE('',*,*,#342,.T.);
#252=ORIENTED_EDGE('',*,*,#319,.F.);
#253=ORIENTED_EDGE('',*,*,#343,.T.);
#254=ORIENTED_EDGE('',*,*,#331,.F.);
#255=ORIENTED_EDGE('',*,*,#314,.F.);
#256=ORIENTED_EDGE('',*,*,#344,.F.);
#257=ORIENTED_EDGE('',*,*,#341,.F.);
#258=ORIENTED_EDGE('',*,*,#344,.T.);
#259=ORIENTED_EDGE('',*,*,#345,.F.);
#260=ORIENTED_EDGE('',*,*,#336,.F.);
#261=ORIENTED_EDGE('',*,*,#346,.F.);
#262=ORIENTED_EDGE('',*,*,#321,.F.);
#263=ORIENTED_EDGE('',*,*,#320,.T.);
#264=ORIENTED_EDGE('',*,*,#342,.F.);
#265=ORIENTED_EDGE('',*,*,#330,.T.);
#266=ORIENTED_EDGE('',*,*,#337,.T.);
#267=ORIENTED_EDGE('',*,*,#345,.T.);
#268=ORIENTED_EDGE('',*,*,#322,.T.);
#269=ORIENTED_EDGE('',*,*,#346,.T.);
#270=ORIENTED_EDGE('',*,*,#335,.T.);
#271=ORIENTED_EDGE('',*,*,#328,.T.);
#272=ORIENTED_EDGE('',*,*,#325,.F.);
#273=ORIENTED_EDGE('',*,*,#316,.T.);
#274=ORIENTED_EDGE('',*,*,#324,.F.);
#275=ORIENTED_EDGE('',*,*,#327,.T.);
#276=ORIENTED_EDGE('',*,*,#334,.T.);
#277=ORIENTED_EDGE('',*,*,#347,.T.);
#278=ORIENTED_EDGE('',*,*,#318,.T.);
#279=ORIENTED_EDGE('',*,*,#348,.T.);
#280=ORIENTED_EDGE('',*,*,#338,.T.);
#281=ORIENTED_EDGE('',*,*,#332,.T.);
#282=ORIENTED_EDGE('',*,*,#343,.F.);
#283=ORIENTED_EDGE('',*,*,#347,.F.);
#284=ORIENTED_EDGE('',*,*,#339,.F.);
#285=ORIENTED_EDGE('',*,*,#348,.F.);
#286=ORIENTED_EDGE('',*,*,#317,.F.);
#287=VERTEX_POINT('',#488);
#288=VERTEX_POINT('',#491);
#289=VERTEX_POINT('',#494);
#290=VERTEX_POINT('',#496);
#291=VERTEX_POINT('',#497);
#292=VERTEX_POINT('',#499);
#293=VERTEX_POINT('',#501);
#294=VERTEX_POINT('',#503);
#295=VERTEX_POINT('',#505);
#296=VERTEX_POINT('',#507);
#297=VERTEX_POINT('',#509);
#298=VERTEX_POINT('',#513);
#299=VERTEX_POINT('',#515);
#300=VERTEX_POINT('',#522);
#301=VERTEX_POINT('',#527);
#302=VERTEX_POINT('',#534);
#303=VERTEX_POINT('',#535);
#304=VERTEX_POINT('',#537);
#305=VERTEX_POINT('',#542);
#306=VERTEX_POINT('',#546);
#307=VERTEX_POINT('',#548);
#308=VERTEX_POINT('',#550);
#309=VERTEX_POINT('',#553);
#310=VERTEX_POINT('',#557);
#311=VERTEX_POINT('',#559);
#312=VERTEX_POINT('',#566);
#313=EDGE_CURVE('',#287,#287,#349,.T.);
#314=EDGE_CURVE('',#288,#288,#350,.T.);
#315=EDGE_CURVE('',#289,#289,#351,.T.);
#316=EDGE_CURVE('',#290,#291,#106,.T.);
#317=EDGE_CURVE('',#290,#292,#352,.T.);
#318=EDGE_CURVE('',#293,#292,#107,.T.);
#319=EDGE_CURVE('',#293,#294,#353,.T.);
#320=EDGE_CURVE('',#295,#294,#108,.T.);
#321=EDGE_CURVE('',#295,#296,#354,.T.);
#322=EDGE_CURVE('',#297,#296,#109,.T.);
#323=EDGE_CURVE('',#297,#291,#355,.T.);
#324=EDGE_CURVE('',#298,#291,#110,.T.);
#325=EDGE_CURVE('',#297,#299,#111,.T.);
#326=EDGE_CURVE('',#298,#299,#356,.T.);
#327=EDGE_CURVE('',#298,#300,#98,.T.);
#328=EDGE_CURVE('',#301,#299,#99,.T.);
#329=EDGE_CURVE('',#300,#301,#357,.T.);
#330=EDGE_CURVE('',#302,#303,#100,.T.);
#331=EDGE_CURVE('',#302,#304,#358,.T.);
#332=EDGE_CURVE('',#305,#304,#101,.T.);
#333=EDGE_CURVE('',#303,#305,#359,.T.);
#334=EDGE_CURVE('',#300,#306,#112,.T.);
#335=EDGE_CURVE('',#307,#301,#113,.T.);
#336=EDGE_CURVE('',#307,#308,#360,.T.);
#337=EDGE_CURVE('',#303,#308,#114,.T.);
#338=EDGE_CURVE('',#309,#305,#115,.T.);
#339=EDGE_CURVE('',#309,#306,#361,.T.);
#340=EDGE_CURVE('',#310,#310,#362,.T.);
#341=EDGE_CURVE('',#311,#311,#363,.T.);
#342=EDGE_CURVE('',#302,#294,#116,.T.);
#343=EDGE_CURVE('',#293,#304,#117,.T.);
#344=EDGE_CURVE('',#312,#312,#364,.T.);
#345=EDGE_CURVE('',#308,#295,#118,.T.);
#346=EDGE_CURVE('',#296,#307,#119,.T.);
#347=EDGE_CURVE('',#306,#290,#120,.T.);
#348=EDGE_CURVE('',#292,#309,#121,.T.);
#349=CIRCLE('',#366,2.25000000000001);
#350=CIRCLE('',#368,1.5);
#351=CIRCLE('',#370,3.25);
#352=CIRCLE('',#371,3.25);
#353=CIRCLE('',#372,3.25);
#354=CIRCLE('',#373,3.25);
#355=CIRCLE('',#374,3.25);
#356=CIRCLE('',#376,2.75000000000002);
#357=CIRCLE('',#378,2.25000000000003);
#358=CIRCLE('',#380,2.75000000000002);
#359=CIRCLE('',#381,2.25000000000003);
#360=CIRCLE('',#383,2.25000000000002);
#361=CIRCLE('',#384,2.25000000000002);
#362=CIRCLE('',#386,1.125);
#363=CIRCLE('',#387,1.125);
#364=CIRCLE('',#391,1.5);
#365=AXIS2_PLACEMENT_3D('',#486,#400,#401);
#366=AXIS2_PLACEMENT_3D('',#487,#402,#403);
#367=AXIS2_PLACEMENT_3D('',#489,#404,#405);
#368=AXIS2_PLACEMENT_3D('',#490,#406,#407);
#369=AXIS2_PLACEMENT_3D('',#492,#408,#409);
#370=AXIS2_PLACEMENT_3D('',#493,#410,#411);
#371=AXIS2_PLACEMENT_3D('',#498,#413,#414);
#372=AXIS2_PLACEMENT_3D('',#502,#416,#417);
#373=AXIS2_PLACEMENT_3D('',#506,#419,#420);
#374=AXIS2_PLACEMENT_3D('',#510,#422,#423);
#375=AXIS2_PLACEMENT_3D('',#511,#424,#425);
#376=AXIS2_PLACEMENT_3D('',#516,#428,#429);
#377=AXIS2_PLACEMENT_3D('',#517,#430,#431);
#378=AXIS2_PLACEMENT_3D('',#528,#432,#433);
#379=AXIS2_PLACEMENT_3D('',#529,#434,#435);
#380=AXIS2_PLACEMENT_3D('',#536,#436,#437);
#381=AXIS2_PLACEMENT_3D('',#543,#438,#439);
#382=AXIS2_PLACEMENT_3D('',#544,#440,#441);
#383=AXIS2_PLACEMENT_3D('',#549,#444,#445);
#384=AXIS2_PLACEMENT_3D('',#554,#448,#449);
#385=AXIS2_PLACEMENT_3D('',#555,#450,#451);
#386=AXIS2_PLACEMENT_3D('',#556,#452,#453);
#387=AXIS2_PLACEMENT_3D('',#558,#454,#455);
#388=AXIS2_PLACEMENT_3D('',#560,#456,#457);
#389=AXIS2_PLACEMENT_3D('',#561,#458,#459);
#390=AXIS2_PLACEMENT_3D('',#564,#462,#463);
#391=AXIS2_PLACEMENT_3D('',#565,#464,#465);
#392=AXIS2_PLACEMENT_3D('',#567,#466,#467);
#393=AXIS2_PLACEMENT_3D('',#568,#468,#469);
#394=AXIS2_PLACEMENT_3D('',#571,#472,#473);
#395=AXIS2_PLACEMENT_3D('',#572,#474,#475);
#396=AXIS2_PLACEMENT_3D('',#573,#476,#477);
#397=AXIS2_PLACEMENT_3D('',#575,#479,#480);
#398=AXIS2_PLACEMENT_3D('',#577,#482,#483);
#399=AXIS2_PLACEMENT_3D('',#578,#484,#485);
#400=DIRECTION('',(0.,0.,1.));
#401=DIRECTION('',(1.,0.,0.));
#402=DIRECTION('',(-6.57909940518611E-017,-1.,0.));
#403=DIRECTION('',(1.,0.,0.));
#404=DIRECTION('',(-6.57909940518611E-017,-1.,0.));
#405=DIRECTION('',(1.,-6.59194920871187E-017,0.));
#406=DIRECTION('',(6.57909940518611E-017,1.,0.));
#407=DIRECTION('',(1.,0.,0.));
#408=DIRECTION('',(-6.57909940518611E-017,-1.,0.));
#409=DIRECTION('',(1.,-6.59194920871187E-017,0.));
#410=DIRECTION('',(-6.57909940518611E-017,-1.,0.));
#411=DIRECTION('',(1.,0.,0.));
#412=DIRECTION('',(-6.57909940518611E-017,-1.,0.));
#413=DIRECTION('',(0.,1.,0.));
#414=DIRECTION('',(0.,0.,1.));
#415=DIRECTION('',(6.57909940518611E-017,1.,0.));
#416=DIRECTION('',(6.57909940518611E-017,1.,0.));
#417=DIRECTION('',(-1.,0.,0.));
#418=DIRECTION('',(-6.57909940518611E-017,-1.,0.));
#419=DIRECTION('',(0.,1.,0.));
#420=DIRECTION('',(0.,0.,1.));
#421=DIRECTION('',(6.57909940518611E-017,1.,0.));
#422=DIRECTION('',(6.57909940518611E-017,1.,0.));
#423=DIRECTION('',(-1.,0.,0.));
#424=DIRECTION('',(-6.57909940518611E-017,-1.,0.));
#425=DIRECTION('',(1.,0.,0.));
#426=DIRECTION('',(-4.33680868994202E-016,0.,-1.));
#427=DIRECTION('',(-4.33680868994202E-016,0.,-1.));
#428=DIRECTION('',(-6.57909940518611E-017,-1.,0.));
#429=DIRECTION('',(1.,0.,0.));
#430=DIRECTION('',(6.57909940518611E-017,1.,0.));
#431=DIRECTION('',(-1.,6.24500451351651E-017,0.));
#432=DIRECTION('',(-6.57909940518611E-017,-1.,0.));
#433=DIRECTION('',(1.,0.,0.));
#434=DIRECTION('',(-6.57909940518611E-017,-1.,0.));
#435=DIRECTION('',(1.,-2.07595928314352E-017,0.));
#436=DIRECTION('',(-6.57909940518611E-017,-1.,0.));
#437=DIRECTION('',(1.,0.,0.));
#438=DIRECTION('',(-6.57909940518611E-017,-1.,0.));
#439=DIRECTION('',(1.,0.,0.));
#440=DIRECTION('',(-6.57909940518611E-017,-1.,0.));
#441=DIRECTION('',(1.,-2.07595928314352E-017,0.));
#442=DIRECTION('',(6.57909940518611E-017,1.,0.));
#443=DIRECTION('',(-6.57909940518611E-017,-1.,0.));
#444=DIRECTION('',(0.,-1.,0.));
#445=DIRECTION('',(0.,0.,1.));
#446=DIRECTION('',(6.57909940518611E-017,1.,0.));
#447=DIRECTION('',(-6.57909940518611E-017,-1.,0.));
#448=DIRECTION('',(0.,-1.,0.));
#449=DIRECTION('',(0.,0.,1.));
#450=DIRECTION('',(-6.57909940518611E-017,-1.,0.));
#451=DIRECTION('',(1.,0.,0.));
#452=DIRECTION('',(-6.57909940518611E-017,-1.,0.));
#453=DIRECTION('',(0.999999999999999,0.,0.));
#454=DIRECTION('',(-6.57909940518611E-017,-1.,0.));
#455=DIRECTION('',(1.,0.,0.));
#456=DIRECTION('',(-6.57909940518611E-017,-1.,0.));
#457=DIRECTION('',(1.,0.,0.));
#458=DIRECTION('',(-6.57909940518611E-017,-1.,0.));
#459=DIRECTION('',(1.,-6.59194920871187E-017,0.));
#460=DIRECTION('',(0.,0.,1.));
#461=DIRECTION('',(0.,0.,1.));
#462=DIRECTION('',(6.57909940518611E-017,1.,0.));
#463=DIRECTION('',(-1.,6.24500451351651E-017,0.));
#464=DIRECTION('',(-6.57909940518611E-017,-1.,0.));
#465=DIRECTION('',(1.,0.,0.));
#466=DIRECTION('',(-6.57909940518611E-017,-1.,0.));
#467=DIRECTION('',(1.,0.,0.));
#468=DIRECTION('',(6.57909940518611E-017,1.,0.));
#469=DIRECTION('',(-1.,8.39116087746663E-017,0.));
#470=DIRECTION('',(0.,0.,1.));
#471=DIRECTION('',(-4.33680868994202E-016,0.,-1.));
#472=DIRECTION('',(0.,1.,0.));
#473=DIRECTION('',(0.,0.,1.));
#474=DIRECTION('',(1.,-6.57909940518611E-017,0.));
#475=DIRECTION('',(6.59194920871187E-017,1.,0.));
#476=DIRECTION('',(-1.,6.57909940518611E-017,4.33680868994202E-016));
#477=DIRECTION('',(4.33680868994202E-016,0.,1.));
#478=DIRECTION('',(-4.33680868994202E-016,0.,-1.));
#479=DIRECTION('',(-1.,6.57909940518611E-017,4.33680868994202E-016));
#480=DIRECTION('',(4.33680868994202E-016,0.,1.));
#481=DIRECTION('',(0.,0.,1.));
#482=DIRECTION('',(1.,-6.57909940518611E-017,0.));
#483=DIRECTION('',(6.59194920871187E-017,1.,0.));
#484=DIRECTION('',(0.,1.,0.));
#485=DIRECTION('',(0.,0.,1.));
#486=CARTESIAN_POINT('',(0.,0.,0.));
#487=CARTESIAN_POINT('',(-9.15972888469698,-20.2191430588015,0.));
#488=CARTESIAN_POINT('',(-6.90972888469698,-20.2191430588015,0.));
#489=CARTESIAN_POINT('',(-9.15972888469698,-20.2191430588015,0.));
#490=CARTESIAN_POINT('',(-9.15972888469698,-8.21914305880155,0.));
#491=CARTESIAN_POINT('',(-7.65972888469698,-8.21914305880155,0.));
#492=CARTESIAN_POINT('',(-9.15972888469698,-8.21914305880155,0.));
#493=CARTESIAN_POINT('',(-9.15972888469698,-18.2191430588015,0.));
#494=CARTESIAN_POINT('',(-5.90972888469698,-18.2191430588015,0.));
#495=CARTESIAN_POINT('',(-8.50972888469698,-35.2191430588016,-3.18433666561813));
#496=CARTESIAN_POINT('',(-8.50972888469698,-33.7191430588015,-3.18433666561813));
#497=CARTESIAN_POINT('',(-8.50972888469698,-35.2191430588016,-3.18433666561813));
#498=CARTESIAN_POINT('',(-9.15972888469699,-33.7191430588015,0.));
#499=CARTESIAN_POINT('',(-9.80972888469698,-33.7191430588015,-3.18433666561813));
#500=CARTESIAN_POINT('',(-9.80972888469698,-35.2191430588016,-3.18433666561813));
#501=CARTESIAN_POINT('',(-9.80972888469698,-35.2191430588016,-3.18433666561813));
#502=CARTESIAN_POINT('',(-9.15972888469699,-35.2191430588016,0.));
#503=CARTESIAN_POINT('',(-9.80972888469698,-35.2191430588016,3.18433666561813));
#504=CARTESIAN_POINT('',(-9.80972888469698,-35.2191430588016,3.18433666561813));
#505=CARTESIAN_POINT('',(-9.80972888469698,-33.7191430588015,3.18433666561813));
#506=CARTESIAN_POINT('',(-9.15972888469699,-33.7191430588015,0.));
#507=CARTESIAN_POINT('',(-8.50972888469698,-33.7191430588015,3.18433666561813));
#508=CARTESIAN_POINT('',(-8.50972888469698,-35.2191430588016,3.18433666561813));
#509=CARTESIAN_POINT('',(-8.50972888469698,-35.2191430588016,3.18433666561813));
#510=CARTESIAN_POINT('',(-9.15972888469699,-35.2191430588016,0.));
#511=CARTESIAN_POINT('',(-9.15972888469699,-35.2191430588016,0.));
#512=CARTESIAN_POINT('',(-8.50972888469698,-35.2191430588015,4.));
#513=CARTESIAN_POINT('',(-8.50972888469698,-35.2191430588015,-2.67207784317746));
#514=CARTESIAN_POINT('',(-8.50972888469698,-35.2191430588015,4.));
#515=CARTESIAN_POINT('',(-8.50972888469698,-35.2191430588015,2.67207784317746));
#516=CARTESIAN_POINT('',(-9.15972888469699,-35.2191430588016,0.));
#517=CARTESIAN_POINT('',(-6.10972888469698,-35.2191430588016,0.));
#518=CARTESIAN_POINT('',(-8.50972888469698,-35.2191430588015,-2.67207784317746));
#519=CARTESIAN_POINT('',(-8.50972888469698,-35.0519032769332,-2.4999610759537));
#520=CARTESIAN_POINT('',(-8.50972888469698,-34.8851042223748,-2.32741837881997));
#521=CARTESIAN_POINT('',(-8.50972888469698,-34.7191430588016,-2.15406592285382));
#522=CARTESIAN_POINT('',(-8.50972888469698,-34.7191430588016,-2.15406592285382));
#523=CARTESIAN_POINT('',(-8.50972888469698,-34.7191430588016,2.15406592285382));
#524=CARTESIAN_POINT('',(-8.50972888469698,-34.885092164068,2.32740578348117));
#525=CARTESIAN_POINT('',(-8.50972888469698,-35.0519055321929,2.49996339698046));
#526=CARTESIAN_POINT('',(-8.50972888469698,-35.2191430588015,2.67207784317746));
#527=CARTESIAN_POINT('',(-8.50972888469698,-34.7191430588016,2.15406592285382));
#528=CARTESIAN_POINT('',(-9.15972888469699,-34.7191430588016,0.));
#529=CARTESIAN_POINT('',(-9.15972888469699,-35.2191430588016,0.));
#530=CARTESIAN_POINT('',(-9.80972888469698,-35.2191430588015,2.67207784317747));
#531=CARTESIAN_POINT('',(-9.80972888469698,-35.0519032769332,2.4999610759537));
#532=CARTESIAN_POINT('',(-9.80972888469698,-34.8851042223748,2.32741837881997));
#533=CARTESIAN_POINT('',(-9.80972888469698,-34.7191430588016,2.15406592285382));
#534=CARTESIAN_POINT('',(-9.80972888469698,-35.2191430588015,2.67207784317747));
#535=CARTESIAN_POINT('',(-9.80972888469698,-34.7191430588016,2.15406592285382));
#536=CARTESIAN_POINT('',(-9.15972888469699,-35.2191430588016,0.));
#537=CARTESIAN_POINT('',(-9.80972888469698,-35.2191430588015,-2.67207784317747));
#538=CARTESIAN_POINT('',(-9.80972888469698,-34.7191430588016,-2.15406592285383));
#539=CARTESIAN_POINT('',(-9.80972888469698,-34.885092164068,-2.32740578348118));
#540=CARTESIAN_POINT('',(-9.80972888469698,-35.0519055321929,-2.49996339698046));
#541=CARTESIAN_POINT('',(-9.80972888469698,-35.2191430588015,-2.67207784317746));
#542=CARTESIAN_POINT('',(-9.80972888469698,-34.7191430588016,-2.15406592285382));
#543=CARTESIAN_POINT('',(-9.15972888469699,-34.7191430588016,0.));
#544=CARTESIAN_POINT('',(-9.15972888469699,-35.2191430588016,0.));
#545=CARTESIAN_POINT('',(-8.50972888469698,-35.2191430588016,-2.15406592285382));
#546=CARTESIAN_POINT('',(-8.50972888469698,-33.7191430588015,-2.15406592285382));
#547=CARTESIAN_POINT('',(-8.50972888469698,-35.2191430588016,2.15406592285382));
#548=CARTESIAN_POINT('',(-8.50972888469698,-33.7191430588015,2.15406592285382));
#549=CARTESIAN_POINT('',(-9.15972888469699,-33.7191430588015,0.));
#550=CARTESIAN_POINT('',(-9.80972888469698,-33.7191430588015,2.15406592285382));
#551=CARTESIAN_POINT('',(-9.80972888469698,-35.2191430588016,2.15406592285382));
#552=CARTESIAN_POINT('',(-9.80972888469698,-35.2191430588016,-2.15406592285382));
#553=CARTESIAN_POINT('',(-9.80972888469698,-33.7191430588015,-2.15406592285382));
#554=CARTESIAN_POINT('',(-9.15972888469699,-33.7191430588015,0.));
#555=CARTESIAN_POINT('',(-9.15972888469699,-35.2191430588016,0.));
#556=CARTESIAN_POINT('',(-9.15972888469698,-18.2191430588015,0.));
#557=CARTESIAN_POINT('',(-8.03472888469699,-18.2191430588015,0.));
#558=CARTESIAN_POINT('',(-9.15972888469698,-13.2191430588015,0.));
#559=CARTESIAN_POINT('',(-8.03472888469699,-13.2191430588015,0.));
#560=CARTESIAN_POINT('',(-9.15972888469699,-35.2191430588016,0.));
#561=CARTESIAN_POINT('',(-8.03472888469699,-18.2191430588015,0.));
#562=CARTESIAN_POINT('',(-9.80972888469698,-35.2191430588015,-4.));
#563=CARTESIAN_POINT('',(-9.80972888469698,-35.2191430588015,-4.));
#564=CARTESIAN_POINT('',(-6.10972888469698,-35.2191430588016,0.));
#565=CARTESIAN_POINT('',(-9.15972888469698,-12.5696240059632,0.));
#566=CARTESIAN_POINT('',(-7.65972888469698,-12.5696240059632,0.));
#567=CARTESIAN_POINT('',(-9.15972888469699,-35.2191430588016,0.));
#568=CARTESIAN_POINT('',(-9.15972888469698,-12.5696240059632,0.));
#569=CARTESIAN_POINT('',(-9.80972888469698,-33.7191430588015,-4.));
#570=CARTESIAN_POINT('',(-8.50972888469698,-33.7191430588015,4.));
#571=CARTESIAN_POINT('',(-8.50972888469698,-33.7191430588015,-4.));
#572=CARTESIAN_POINT('',(-9.80972888469698,-33.7191430588015,-4.));
#573=CARTESIAN_POINT('',(-8.50972888469698,-33.7191430588015,4.));
#574=CARTESIAN_POINT('',(-8.50972888469698,-33.7191430588015,4.));
#575=CARTESIAN_POINT('',(-8.50972888469698,-33.7191430588015,4.));
#576=CARTESIAN_POINT('',(-9.80972888469698,-33.7191430588015,-4.));
#577=CARTESIAN_POINT('',(-9.80972888469698,-33.7191430588015,-4.));
#578=CARTESIAN_POINT('',(-8.50972888469698,-33.7191430588015,-4.));
#579=(
GEOMETRIC_REPRESENTATION_CONTEXT(3)
GLOBAL_UNCERTAINTY_ASSIGNED_CONTEXT((#580))
GLOBAL_UNIT_ASSIGNED_CONTEXT((#586,#582,#581))
REPRESENTATION_CONTEXT('C3D_VN13_040_0008_1X_Rev05',
'TOP_LEVEL_ASSEMBLY_PART')
);
#580=UNCERTAINTY_MEASURE_WITH_UNIT(LENGTH_MEASURE(0.0508),#586,
'DISTANCE_ACCURACY_VALUE','Maximum Tolerance applied to model');
#581=(
NAMED_UNIT(*)
SI_UNIT($,.STERADIAN.)
SOLID_ANGLE_UNIT()
);
#582=(
CONVERSION_BASED_UNIT('DEGREE',#584)
NAMED_UNIT(#583)
PLANE_ANGLE_UNIT()
);
#583=DIMENSIONAL_EXPONENTS(0.,0.,0.,0.,0.,0.,0.);
#584=PLANE_ANGLE_MEASURE_WITH_UNIT(PLANE_ANGLE_MEASURE(0.0174532925),#585);
#585=(
NAMED_UNIT(*)
PLANE_ANGLE_UNIT()
SI_UNIT($,.RADIAN.)
);
#586=(
LENGTH_UNIT()
NAMED_UNIT(*)
SI_UNIT(.MILLI.,.METRE.)
);
ENDSEC;
END-ISO-10303-21;
