ISO-10303-21;
HEADER;
/* Generated by software containing ST-Developer
 * from STEP Tools, Inc. (www.steptools.com) 
 */
/* OPTION: using custom schema-name function */

FILE_DESCRIPTION(
/* description */ (''),
/* implementation_level */ '2;1');

FILE_NAME(
/* name */ 'C3D_VN13_040_0009_1X_Rev03.stp',
/* time_stamp */ '2016-07-14T10:04:31+02:00',
/* author */ (''),
/* organization */ (''),
/* preprocessor_version */ 'ST-DEVELOPER v15',
/* originating_system */ 'SIEMENS PLM Software NX 9.0',
/* authorisation */ '');

FILE_SCHEMA (('CONFIG_CONTROL_DESIGN'));
ENDSEC;

DATA;
#10=SHAPE_REPRESENTATION_RELATIONSHIP('None',
'relationship between n 13 040 0009 xnxm001-03-None and n 13 040 0009 
xnxm001-03-None',#92,#11);
#11=ADVANCED_BREP_SHAPE_REPRESENTATION('n 13 040 0009 xnxm001-03-None',
(#93),#423);
#12=CC_DESIGN_APPROVAL(#24,(#82));
#13=CC_DESIGN_APPROVAL(#25,(#84));
#14=CC_DESIGN_APPROVAL(#26,(#31));
#15=APPROVAL_PERSON_ORGANIZATION(#69,#24,#18);
#16=APPROVAL_PERSON_ORGANIZATION(#70,#25,#19);
#17=APPROVAL_PERSON_ORGANIZATION(#71,#26,#20);
#18=APPROVAL_ROLE('approver');
#19=APPROVAL_ROLE('approver');
#20=APPROVAL_ROLE('approver');
#21=APPROVAL_DATE_TIME(#39,#24);
#22=APPROVAL_DATE_TIME(#40,#25);
#23=APPROVAL_DATE_TIME(#41,#26);
#24=APPROVAL(#27,' ');
#25=APPROVAL(#28,' ');
#26=APPROVAL(#29,' ');
#27=APPROVAL_STATUS('not_yet_approved');
#28=APPROVAL_STATUS('not_yet_approved');
#29=APPROVAL_STATUS('not_yet_approved');
#30=CC_DESIGN_SECURITY_CLASSIFICATION(#31,(#84));
#31=SECURITY_CLASSIFICATION(' ',' ',#32);
#32=SECURITY_CLASSIFICATION_LEVEL('confidential');
#33=CC_DESIGN_DATE_AND_TIME_ASSIGNMENT(#37,#35,(#82));
#34=CC_DESIGN_DATE_AND_TIME_ASSIGNMENT(#38,#36,(#31));
#35=DATE_TIME_ROLE('creation_date');
#36=DATE_TIME_ROLE('classification_date');
#37=DATE_AND_TIME(#52,#42);
#38=DATE_AND_TIME(#53,#43);
#39=DATE_AND_TIME(#54,#44);
#40=DATE_AND_TIME(#55,#45);
#41=DATE_AND_TIME(#56,#46);
#42=LOCAL_TIME(0,0,0.,#47);
#43=LOCAL_TIME(0,0,0.,#48);
#44=LOCAL_TIME(0,0,0.,#49);
#45=LOCAL_TIME(0,0,0.,#50);
#46=LOCAL_TIME(0,0,0.,#51);
#47=COORDINATED_UNIVERSAL_TIME_OFFSET(0,0,.BEHIND.);
#48=COORDINATED_UNIVERSAL_TIME_OFFSET(0,0,.BEHIND.);
#49=COORDINATED_UNIVERSAL_TIME_OFFSET(0,0,.BEHIND.);
#50=COORDINATED_UNIVERSAL_TIME_OFFSET(0,0,.BEHIND.);
#51=COORDINATED_UNIVERSAL_TIME_OFFSET(0,0,.BEHIND.);
#52=CALENDAR_DATE(0,1,1);
#53=CALENDAR_DATE(0,1,1);
#54=CALENDAR_DATE(0,1,1);
#55=CALENDAR_DATE(0,1,1);
#56=CALENDAR_DATE(0,1,1);
#57=CC_DESIGN_PERSON_AND_ORGANIZATION_ASSIGNMENT(#65,#61,(#82,#84));
#58=CC_DESIGN_PERSON_AND_ORGANIZATION_ASSIGNMENT(#66,#62,(#86));
#59=CC_DESIGN_PERSON_AND_ORGANIZATION_ASSIGNMENT(#67,#63,(#84));
#60=CC_DESIGN_PERSON_AND_ORGANIZATION_ASSIGNMENT(#68,#64,(#31));
#61=PERSON_AND_ORGANIZATION_ROLE('creator');
#62=PERSON_AND_ORGANIZATION_ROLE('design_owner');
#63=PERSON_AND_ORGANIZATION_ROLE('design_supplier');
#64=PERSON_AND_ORGANIZATION_ROLE('classification_officer');
#65=PERSON_AND_ORGANIZATION(#79,#72);
#66=PERSON_AND_ORGANIZATION(#79,#73);
#67=PERSON_AND_ORGANIZATION(#79,#74);
#68=PERSON_AND_ORGANIZATION(#79,#75);
#69=PERSON_AND_ORGANIZATION(#79,#76);
#70=PERSON_AND_ORGANIZATION(#79,#77);
#71=PERSON_AND_ORGANIZATION(#79,#78);
#72=ORGANIZATION(' ',' ',' ');
#73=ORGANIZATION(' ',' ',' ');
#74=ORGANIZATION(' ',' ',' ');
#75=ORGANIZATION(' ',' ',' ');
#76=ORGANIZATION(' ',' ',' ');
#77=ORGANIZATION(' ',' ',' ');
#78=ORGANIZATION(' ',' ',' ');
#79=PERSON(' ',' ',' ',(' '),$,$);
#80=SHAPE_DEFINITION_REPRESENTATION(#81,#92);
#81=PRODUCT_DEFINITION_SHAPE('','',#82);
#82=PRODUCT_DEFINITION(' ','',#84,#83);
#83=DESIGN_CONTEXT('',#91,'design');
#84=PRODUCT_DEFINITION_FORMATION_WITH_SPECIFIED_SOURCE(' ',' ',#86,
 .NOT_KNOWN.);
#85=PRODUCT_RELATED_PRODUCT_CATEGORY('detail','',(#86));
#86=PRODUCT('n 13 040 0009 xnxm001-03','n 13 040 0009 xnxm001-03',' ',(#89));
#87=PRODUCT_CATEGORY('part',' ');
#88=PRODUCT_CATEGORY(' ','');
#89=MECHANICAL_CONTEXT(' ',#91,'mechanical');
#90=APPLICATION_PROTOCOL_DEFINITION('international standard',
'config_control_design',2010,#91);
#91=APPLICATION_CONTEXT(
'configuration controlled 3D designs of mechanical parts and assemblie
s');
#92=SHAPE_REPRESENTATION('n 13 040 0009 xnxm001-03-None',(#274),#423);
#93=MANIFOLD_SOLID_BREP('',#94);
#94=CLOSED_SHELL('',(#131,#132,#133,#134,#135,#136,#137,#138,#139,#140,
#141,#142,#143));
#95=CYLINDRICAL_SURFACE('',#285,1.1);
#96=CYLINDRICAL_SURFACE('',#291,2.00000000000001);
#97=CYLINDRICAL_SURFACE('',#294,1.49999999999999);
#98=FACE_BOUND('',#163,.T.);
#99=FACE_BOUND('',#164,.T.);
#100=FACE_BOUND('',#165,.T.);
#101=FACE_BOUND('',#166,.T.);
#102=FACE_BOUND('',#167,.T.);
#103=FACE_BOUND('',#168,.T.);
#104=FACE_BOUND('',#170,.T.);
#105=FACE_BOUND('',#171,.T.);
#106=FACE_BOUND('',#172,.T.);
#107=FACE_BOUND('',#173,.T.);
#108=LINE('',#376,#116);
#109=LINE('',#378,#117);
#110=LINE('',#394,#118);
#111=LINE('',#395,#119);
#112=LINE('',#399,#120);
#113=LINE('',#403,#121);
#114=LINE('',#418,#122);
#115=LINE('',#419,#123);
#116=VECTOR('',#311,1.);
#117=VECTOR('',#314,1.);
#118=VECTOR('',#331,1.);
#119=VECTOR('',#332,1.);
#120=VECTOR('',#335,1.);
#121=VECTOR('',#338,1.);
#122=VECTOR('',#349,1.);
#123=VECTOR('',#350,1.);
#124=CONICAL_SURFACE('',#279,2.00000000000001,45.0000000000004);
#125=CONICAL_SURFACE('',#292,2.00000000000001,45.0000000000004);
#126=CONICAL_SURFACE('',#295,1.49999999999999,29.9999999999999);
#127=B_SPLINE_CURVE_WITH_KNOTS('',3,(#364,#365,#366,#367),.UNSPECIFIED.,
 .F.,.F.,(4,4),(0.,1.),.UNSPECIFIED.);
#128=B_SPLINE_CURVE_WITH_KNOTS('',3,(#371,#372,#373,#374),.UNSPECIFIED.,
 .F.,.F.,(4,4),(0.,1.),.UNSPECIFIED.);
#129=B_SPLINE_CURVE_WITH_KNOTS('',3,(#405,#406,#407,#408),.UNSPECIFIED.,
 .F.,.F.,(4,4),(0.,1.),.UNSPECIFIED.);
#130=B_SPLINE_CURVE_WITH_KNOTS('',3,(#409,#410,#411,#412),.UNSPECIFIED.,
 .F.,.F.,(4,4),(0.,1.),.UNSPECIFIED.);
#131=ADVANCED_FACE('',(#151),#144,.F.);
#132=ADVANCED_FACE('',(#152),#124,.T.);
#133=ADVANCED_FACE('',(#153),#145,.F.);
#134=ADVANCED_FACE('',(#154),#146,.F.);
#135=ADVANCED_FACE('',(#98,#99),#95,.T.);
#136=ADVANCED_FACE('',(#100,#101),#147,.F.);
#137=ADVANCED_FACE('',(#102,#103),#96,.T.);
#138=ADVANCED_FACE('',(#155),#125,.T.);
#139=ADVANCED_FACE('',(#104,#105),#97,.T.);
#140=ADVANCED_FACE('',(#106,#107),#126,.T.);
#141=ADVANCED_FACE('',(#156),#148,.T.);
#142=ADVANCED_FACE('',(#157),#149,.F.);
#143=ADVANCED_FACE('',(#158),#150,.F.);
#144=PLANE('',#276);
#145=PLANE('',#280);
#146=PLANE('',#282);
#147=PLANE('',#287);
#148=PLANE('',#296);
#149=PLANE('',#297);
#150=PLANE('',#298);
#151=FACE_OUTER_BOUND('',#159,.T.);
#152=FACE_OUTER_BOUND('',#160,.T.);
#153=FACE_OUTER_BOUND('',#161,.T.);
#154=FACE_OUTER_BOUND('',#162,.T.);
#155=FACE_OUTER_BOUND('',#169,.T.);
#156=FACE_OUTER_BOUND('',#174,.T.);
#157=FACE_OUTER_BOUND('',#175,.T.);
#158=FACE_OUTER_BOUND('',#176,.T.);
#159=EDGE_LOOP('',(#177));
#160=EDGE_LOOP('',(#178,#179,#180,#181));
#161=EDGE_LOOP('',(#182,#183));
#162=EDGE_LOOP('',(#184,#185));
#163=EDGE_LOOP('',(#186));
#164=EDGE_LOOP('',(#187));
#165=EDGE_LOOP('',(#188));
#166=EDGE_LOOP('',(#189));
#167=EDGE_LOOP('',(#190,#191,#192,#193,#194,#195,#196,#197));
#168=EDGE_LOOP('',(#198));
#169=EDGE_LOOP('',(#199,#200,#201,#202));
#170=EDGE_LOOP('',(#203));
#171=EDGE_LOOP('',(#204));
#172=EDGE_LOOP('',(#205));
#173=EDGE_LOOP('',(#206));
#174=EDGE_LOOP('',(#207,#208,#209,#210));
#175=EDGE_LOOP('',(#211,#212,#213,#214,#215,#216));
#176=EDGE_LOOP('',(#217,#218,#219,#220,#221,#222));
#177=ORIENTED_EDGE('',*,*,#240,.T.);
#178=ORIENTED_EDGE('',*,*,#241,.T.);
#179=ORIENTED_EDGE('',*,*,#242,.T.);
#180=ORIENTED_EDGE('',*,*,#243,.F.);
#181=ORIENTED_EDGE('',*,*,#244,.T.);
#182=ORIENTED_EDGE('',*,*,#245,.F.);
#183=ORIENTED_EDGE('',*,*,#243,.T.);
#184=ORIENTED_EDGE('',*,*,#246,.F.);
#185=ORIENTED_EDGE('',*,*,#247,.T.);
#186=ORIENTED_EDGE('',*,*,#248,.F.);
#187=ORIENTED_EDGE('',*,*,#249,.T.);
#188=ORIENTED_EDGE('',*,*,#248,.T.);
#189=ORIENTED_EDGE('',*,*,#250,.F.);
#190=ORIENTED_EDGE('',*,*,#251,.F.);
#191=ORIENTED_EDGE('',*,*,#252,.T.);
#192=ORIENTED_EDGE('',*,*,#241,.F.);
#193=ORIENTED_EDGE('',*,*,#253,.T.);
#194=ORIENTED_EDGE('',*,*,#254,.F.);
#195=ORIENTED_EDGE('',*,*,#255,.T.);
#196=ORIENTED_EDGE('',*,*,#256,.F.);
#197=ORIENTED_EDGE('',*,*,#257,.T.);
#198=ORIENTED_EDGE('',*,*,#250,.T.);
#199=ORIENTED_EDGE('',*,*,#256,.T.);
#200=ORIENTED_EDGE('',*,*,#258,.T.);
#201=ORIENTED_EDGE('',*,*,#247,.F.);
#202=ORIENTED_EDGE('',*,*,#259,.T.);
#203=ORIENTED_EDGE('',*,*,#240,.F.);
#204=ORIENTED_EDGE('',*,*,#260,.F.);
#205=ORIENTED_EDGE('',*,*,#249,.F.);
#206=ORIENTED_EDGE('',*,*,#260,.T.);
#207=ORIENTED_EDGE('',*,*,#251,.T.);
#208=ORIENTED_EDGE('',*,*,#261,.T.);
#209=ORIENTED_EDGE('',*,*,#254,.T.);
#210=ORIENTED_EDGE('',*,*,#262,.T.);
#211=ORIENTED_EDGE('',*,*,#262,.F.);
#212=ORIENTED_EDGE('',*,*,#253,.F.);
#213=ORIENTED_EDGE('',*,*,#244,.F.);
#214=ORIENTED_EDGE('',*,*,#245,.T.);
#215=ORIENTED_EDGE('',*,*,#242,.F.);
#216=ORIENTED_EDGE('',*,*,#252,.F.);
#217=ORIENTED_EDGE('',*,*,#261,.F.);
#218=ORIENTED_EDGE('',*,*,#257,.F.);
#219=ORIENTED_EDGE('',*,*,#259,.F.);
#220=ORIENTED_EDGE('',*,*,#246,.T.);
#221=ORIENTED_EDGE('',*,*,#258,.F.);
#222=ORIENTED_EDGE('',*,*,#255,.F.);
#223=VERTEX_POINT('',#359);
#224=VERTEX_POINT('',#362);
#225=VERTEX_POINT('',#363);
#226=VERTEX_POINT('',#368);
#227=VERTEX_POINT('',#370);
#228=VERTEX_POINT('',#379);
#229=VERTEX_POINT('',#380);
#230=VERTEX_POINT('',#384);
#231=VERTEX_POINT('',#386);
#232=VERTEX_POINT('',#389);
#233=VERTEX_POINT('',#392);
#234=VERTEX_POINT('',#393);
#235=VERTEX_POINT('',#396);
#236=VERTEX_POINT('',#398);
#237=VERTEX_POINT('',#400);
#238=VERTEX_POINT('',#402);
#239=VERTEX_POINT('',#415);
#240=EDGE_CURVE('',#223,#223,#263,.T.);
#241=EDGE_CURVE('',#224,#225,#264,.T.);
#242=EDGE_CURVE('',#225,#226,#127,.T.);
#243=EDGE_CURVE('',#227,#226,#265,.T.);
#244=EDGE_CURVE('',#227,#224,#128,.T.);
#245=EDGE_CURVE('',#227,#226,#108,.T.);
#246=EDGE_CURVE('',#228,#229,#109,.T.);
#247=EDGE_CURVE('',#228,#229,#266,.T.);
#248=EDGE_CURVE('',#230,#230,#267,.T.);
#249=EDGE_CURVE('',#231,#231,#268,.T.);
#250=EDGE_CURVE('',#232,#232,#269,.T.);
#251=EDGE_CURVE('',#233,#234,#270,.T.);
#252=EDGE_CURVE('',#233,#225,#110,.T.);
#253=EDGE_CURVE('',#224,#235,#111,.T.);
#254=EDGE_CURVE('',#236,#235,#271,.T.);
#255=EDGE_CURVE('',#236,#237,#112,.T.);
#256=EDGE_CURVE('',#238,#237,#272,.T.);
#257=EDGE_CURVE('',#238,#234,#113,.T.);
#258=EDGE_CURVE('',#237,#229,#129,.T.);
#259=EDGE_CURVE('',#228,#238,#130,.T.);
#260=EDGE_CURVE('',#239,#239,#273,.T.);
#261=EDGE_CURVE('',#234,#236,#114,.T.);
#262=EDGE_CURVE('',#235,#233,#115,.T.);
#263=CIRCLE('',#275,1.49999999999999);
#264=CIRCLE('',#277,2.00000000000001);
#265=CIRCLE('',#278,1.50000000000001);
#266=CIRCLE('',#281,1.50000000000001);
#267=CIRCLE('',#283,1.1);
#268=CIRCLE('',#284,1.1);
#269=CIRCLE('',#286,2.);
#270=CIRCLE('',#288,2.00000000000001);
#271=CIRCLE('',#289,2.00000000000001);
#272=CIRCLE('',#290,2.00000000000001);
#273=CIRCLE('',#293,1.49999999999999);
#274=AXIS2_PLACEMENT_3D('',#357,#299,#300);
#275=AXIS2_PLACEMENT_3D('',#358,#301,#302);
#276=AXIS2_PLACEMENT_3D('',#360,#303,#304);
#277=AXIS2_PLACEMENT_3D('',#361,#305,#306);
#278=AXIS2_PLACEMENT_3D('',#369,#307,#308);
#279=AXIS2_PLACEMENT_3D('',#375,#309,#310);
#280=AXIS2_PLACEMENT_3D('',#377,#312,#313);
#281=AXIS2_PLACEMENT_3D('',#381,#315,#316);
#282=AXIS2_PLACEMENT_3D('',#382,#317,#318);
#283=AXIS2_PLACEMENT_3D('',#383,#319,#320);
#284=AXIS2_PLACEMENT_3D('',#385,#321,#322);
#285=AXIS2_PLACEMENT_3D('',#387,#323,#324);
#286=AXIS2_PLACEMENT_3D('',#388,#325,#326);
#287=AXIS2_PLACEMENT_3D('',#390,#327,#328);
#288=AXIS2_PLACEMENT_3D('',#391,#329,#330);
#289=AXIS2_PLACEMENT_3D('',#397,#333,#334);
#290=AXIS2_PLACEMENT_3D('',#401,#336,#337);
#291=AXIS2_PLACEMENT_3D('',#404,#339,#340);
#292=AXIS2_PLACEMENT_3D('',#413,#341,#342);
#293=AXIS2_PLACEMENT_3D('',#414,#343,#344);
#294=AXIS2_PLACEMENT_3D('',#416,#345,#346);
#295=AXIS2_PLACEMENT_3D('',#417,#347,#348);
#296=AXIS2_PLACEMENT_3D('',#420,#351,#352);
#297=AXIS2_PLACEMENT_3D('',#421,#353,#354);
#298=AXIS2_PLACEMENT_3D('',#422,#355,#356);
#299=DIRECTION('',(0.,0.,1.));
#300=DIRECTION('',(1.,0.,0.));
#301=DIRECTION('',(3.58136459556502E-016,1.,0.));
#302=DIRECTION('',(1.,0.,0.));
#303=DIRECTION('',(-3.58136459556502E-016,-1.,0.));
#304=DIRECTION('',(1.,-3.57353036051222E-016,0.));
#305=DIRECTION('',(-3.58136459556502E-016,-1.,0.));
#306=DIRECTION('',(1.,0.,0.));
#307=DIRECTION('',(-3.58136459556502E-016,-1.,0.));
#308=DIRECTION('',(1.,0.,0.));
#309=DIRECTION('',(3.58136459556502E-016,1.,0.));
#310=DIRECTION('',(-1.,2.77001752650984E-016,0.));
#311=DIRECTION('',(0.,0.,1.));
#312=DIRECTION('',(3.58136459556502E-016,1.,0.));
#313=DIRECTION('',(-1.,3.60822483003176E-016,0.));
#314=DIRECTION('',(0.,0.,-1.));
#315=DIRECTION('',(-3.58136459556502E-016,-1.,0.));
#316=DIRECTION('',(1.,0.,0.));
#317=DIRECTION('',(3.58136459556502E-016,1.,0.));
#318=DIRECTION('',(-1.,3.60822483003176E-016,0.));
#319=DIRECTION('',(-3.58136459556502E-016,-1.,0.));
#320=DIRECTION('',(1.,0.,0.));
#321=DIRECTION('',(-3.58136459556502E-016,-1.,0.));
#322=DIRECTION('',(1.,0.,0.));
#323=DIRECTION('',(-3.58136459556502E-016,-1.,0.));
#324=DIRECTION('',(1.,0.,0.));
#325=DIRECTION('',(-3.58136459556502E-016,-1.,0.));
#326=DIRECTION('',(1.,0.,0.));
#327=DIRECTION('',(-3.58136459556502E-016,-1.,0.));
#328=DIRECTION('',(1.,-3.57353036051222E-016,0.));
#329=DIRECTION('',(0.,-1.,0.));
#330=DIRECTION('',(0.,0.,-1.));
#331=DIRECTION('',(-3.58136459556502E-016,-1.,0.));
#332=DIRECTION('',(3.58136459556502E-016,1.,0.));
#333=DIRECTION('',(0.,-1.,0.));
#334=DIRECTION('',(0.,0.,-1.));
#335=DIRECTION('',(-3.58136459556502E-016,-1.,0.));
#336=DIRECTION('',(-3.58136459556502E-016,-1.,0.));
#337=DIRECTION('',(1.,0.,0.));
#338=DIRECTION('',(3.58136459556502E-016,1.,0.));
#339=DIRECTION('',(-3.58136459556502E-016,-1.,0.));
#340=DIRECTION('',(1.,0.,0.));
#341=DIRECTION('',(3.58136459556502E-016,1.,0.));
#342=DIRECTION('',(-1.,2.77001752650984E-016,0.));
#343=DIRECTION('',(-3.58136459556502E-016,-1.,0.));
#344=DIRECTION('',(1.,0.,0.));
#345=DIRECTION('',(-3.58136459556502E-016,-1.,0.));
#346=DIRECTION('',(1.,0.,0.));
#347=DIRECTION('',(3.58136459556502E-016,1.,0.));
#348=DIRECTION('',(-1.,4.3753910289648E-016,0.));
#349=DIRECTION('',(0.,0.,-1.));
#350=DIRECTION('',(0.,0.,1.));
#351=DIRECTION('',(0.,-1.,0.));
#352=DIRECTION('',(0.,0.,-1.));
#353=DIRECTION('',(1.,-3.58136459556502E-016,0.));
#354=DIRECTION('',(3.58220397789211E-016,1.,0.));
#355=DIRECTION('',(-1.,3.58136459556502E-016,0.));
#356=DIRECTION('',(-3.57353036051222E-016,-1.,0.));
#357=CARTESIAN_POINT('',(0.,0.,0.));
#358=CARTESIAN_POINT('',(-8.0121820792556,-13.9156866490841,0.));
#359=CARTESIAN_POINT('',(-6.51218207925561,-13.9156866490841,0.));
#360=CARTESIAN_POINT('',(-8.0121820792556,-13.9156866490841,0.));
#361=CARTESIAN_POINT('',(-8.01218207925561,-38.2156866490841,0.));
#362=CARTESIAN_POINT('',(-7.3621820792556,-38.2156866490841,-1.89142803193778));
#363=CARTESIAN_POINT('',(-7.3621820792556,-38.2156866490841,1.89142803193778));
#364=CARTESIAN_POINT('',(-7.3621820792556,-38.2156866490841,1.89142803193778));
#365=CARTESIAN_POINT('',(-7.3621820792556,-38.3841714550196,1.71327184191571));
#366=CARTESIAN_POINT('',(-7.3621820792556,-38.5514989348318,1.53403164281024));
#367=CARTESIAN_POINT('',(-7.3621820792556,-38.7156866490841,1.35185058345958));
#368=CARTESIAN_POINT('',(-7.3621820792556,-38.7156866490841,1.35185058345959));
#369=CARTESIAN_POINT('',(-8.01218207925561,-38.7156866490841,0.));
#370=CARTESIAN_POINT('',(-7.3621820792556,-38.7156866490841,-1.35185058345959));
#371=CARTESIAN_POINT('',(-7.3621820792556,-38.7156866490841,-1.35185058345958));
#372=CARTESIAN_POINT('',(-7.3621820792556,-38.5515561668106,-1.53396813877419));
#373=CARTESIAN_POINT('',(-7.3621820792556,-38.3842145553201,-1.71322626756683));
#374=CARTESIAN_POINT('',(-7.3621820792556,-38.2156866490841,-1.89142803193778));
#375=CARTESIAN_POINT('',(-8.01218207925561,-38.2156866490841,0.));
#376=CARTESIAN_POINT('',(-7.3621820792556,-38.7156866490841,-3.));
#377=CARTESIAN_POINT('',(-6.51218207925559,-38.7156866490841,0.));
#378=CARTESIAN_POINT('',(-8.6621820792556,-38.7156866490841,3.));
#379=CARTESIAN_POINT('',(-8.6621820792556,-38.7156866490841,1.3518505834596));
#380=CARTESIAN_POINT('',(-8.6621820792556,-38.7156866490841,-1.3518505834596));
#381=CARTESIAN_POINT('',(-8.01218207925561,-38.7156866490841,0.));
#382=CARTESIAN_POINT('',(-6.51218207925559,-38.7156866490841,0.));
#383=CARTESIAN_POINT('',(-8.0121820792556,-23.9156866490841,0.));
#384=CARTESIAN_POINT('',(-6.9121820792556,-23.9156866490841,0.));
#385=CARTESIAN_POINT('',(-8.0121820792556,-18.9156866490841,0.));
#386=CARTESIAN_POINT('',(-6.9121820792556,-18.9156866490841,0.));
#387=CARTESIAN_POINT('',(-8.01218207925561,-38.7156866490841,0.));
#388=CARTESIAN_POINT('',(-8.0121820792556,-23.9156866490841,0.));
#389=CARTESIAN_POINT('',(-6.0121820792556,-23.9156866490841,0.));
#390=CARTESIAN_POINT('',(-6.9121820792556,-23.9156866490841,0.));
#391=CARTESIAN_POINT('',(-8.01218207925561,-37.2156866490841,0.));
#392=CARTESIAN_POINT('',(-7.3621820792556,-37.2156866490841,1.89142803193778));
#393=CARTESIAN_POINT('',(-8.6621820792556,-37.2156866490841,1.89142803193778));
#394=CARTESIAN_POINT('',(-7.3621820792556,-38.7156866490841,1.89142803193778));
#395=CARTESIAN_POINT('',(-7.3621820792556,-38.7156866490841,-1.89142803193778));
#396=CARTESIAN_POINT('',(-7.3621820792556,-37.2156866490841,-1.89142803193778));
#397=CARTESIAN_POINT('',(-8.01218207925561,-37.2156866490841,0.));
#398=CARTESIAN_POINT('',(-8.6621820792556,-37.2156866490841,-1.89142803193778));
#399=CARTESIAN_POINT('',(-8.6621820792556,-38.7156866490841,-1.89142803193778));
#400=CARTESIAN_POINT('',(-8.6621820792556,-38.2156866490841,-1.89142803193778));
#401=CARTESIAN_POINT('',(-8.01218207925561,-38.2156866490841,0.));
#402=CARTESIAN_POINT('',(-8.6621820792556,-38.2156866490841,1.89142803193778));
#403=CARTESIAN_POINT('',(-8.6621820792556,-38.7156866490841,1.89142803193778));
#404=CARTESIAN_POINT('',(-8.01218207925561,-38.7156866490841,0.));
#405=CARTESIAN_POINT('',(-8.6621820792556,-38.2156866490841,-1.89142803193778));
#406=CARTESIAN_POINT('',(-8.6621820792556,-38.3841714550196,-1.71327184191571));
#407=CARTESIAN_POINT('',(-8.6621820792556,-38.5514989348318,-1.53403164281024));
#408=CARTESIAN_POINT('',(-8.6621820792556,-38.7156866490841,-1.35185058345959));
#409=CARTESIAN_POINT('',(-8.6621820792556,-38.7156866490841,1.35185058345959));
#410=CARTESIAN_POINT('',(-8.6621820792556,-38.5515561668106,1.5339681387742));
#411=CARTESIAN_POINT('',(-8.6621820792556,-38.3842145553201,1.71322626756683));
#412=CARTESIAN_POINT('',(-8.6621820792556,-38.2156866490841,1.89142803193778));
#413=CARTESIAN_POINT('',(-8.01218207925561,-38.2156866490841,0.));
#414=CARTESIAN_POINT('',(-8.0121820792556,-18.2228663260566,0.));
#415=CARTESIAN_POINT('',(-6.51218207925561,-18.2228663260566,0.));
#416=CARTESIAN_POINT('',(-8.01218207925561,-38.7156866490841,0.));
#417=CARTESIAN_POINT('',(-8.0121820792556,-18.2228663260566,0.));
#418=CARTESIAN_POINT('',(-8.6621820792556,-37.2156866490841,3.));
#419=CARTESIAN_POINT('',(-7.3621820792556,-37.2156866490841,-3.));
#420=CARTESIAN_POINT('',(-7.3621820792556,-37.2156866490841,3.));
#421=CARTESIAN_POINT('',(-7.3621820792556,-37.2156866490841,-3.));
#422=CARTESIAN_POINT('',(-8.6621820792556,-37.2156866490841,3.));
#423=(
GEOMETRIC_REPRESENTATION_CONTEXT(3)
GLOBAL_UNCERTAINTY_ASSIGNED_CONTEXT((#424))
GLOBAL_UNIT_ASSIGNED_CONTEXT((#430,#426,#425))
REPRESENTATION_CONTEXT('C3D_VN13_040_0009_1X_Rev03',
'TOP_LEVEL_ASSEMBLY_PART')
);
#424=UNCERTAINTY_MEASURE_WITH_UNIT(LENGTH_MEASURE(0.0508),#430,
'DISTANCE_ACCURACY_VALUE','Maximum Tolerance applied to model');
#425=(
NAMED_UNIT(*)
SI_UNIT($,.STERADIAN.)
SOLID_ANGLE_UNIT()
);
#426=(
CONVERSION_BASED_UNIT('DEGREE',#428)
NAMED_UNIT(#427)
PLANE_ANGLE_UNIT()
);
#427=DIMENSIONAL_EXPONENTS(0.,0.,0.,0.,0.,0.,0.);
#428=PLANE_ANGLE_MEASURE_WITH_UNIT(PLANE_ANGLE_MEASURE(0.0174532925),#429);
#429=(
NAMED_UNIT(*)
PLANE_ANGLE_UNIT()
SI_UNIT($,.RADIAN.)
);
#430=(
LENGTH_UNIT()
NAMED_UNIT(*)
SI_UNIT(.MILLI.,.METRE.)
);
ENDSEC;
END-ISO-10303-21;
