ISO-10303-21;
HEADER;
/* Generated by software containing ST-Developer
 * from STEP Tools, Inc. (www.steptools.com) 
 */
/* OPTION: using custom schema-name function */

FILE_DESCRIPTION(
/* description */ (''),
/* implementation_level */ '2;1');

FILE_NAME(
/* name */ 'C3D_VN17_050_0604_1_Rev01.stp',
/* time_stamp */ '2016-07-14T10:16:28+02:00',
/* author */ (''),
/* organization */ (''),
/* preprocessor_version */ 'ST-DEVELOPER v15',
/* originating_system */ 'SIEMENS PLM Software NX 9.0',
/* authorisation */ '');

FILE_SCHEMA (('CONFIG_CONTROL_DESIGN'));
ENDSEC;

DATA;
#10=SHAPE_REPRESENTATION_RELATIONSHIP('None',
'relationship between vn17 050 0604 1 cnxm001-01-None and vn17 050 060
4 1 cnxm001-01-None',#92,#11);
#11=ADVANCED_BREP_SHAPE_REPRESENTATION(
'vn17 050 0604 1 cnxm001-01-None',(#103,#104),#649);
#12=CC_DESIGN_APPROVAL(#24,(#82));
#13=CC_DESIGN_APPROVAL(#25,(#84));
#14=CC_DESIGN_APPROVAL(#26,(#31));
#15=APPROVAL_PERSON_ORGANIZATION(#69,#24,#18);
#16=APPROVAL_PERSON_ORGANIZATION(#70,#25,#19);
#17=APPROVAL_PERSON_ORGANIZATION(#71,#26,#20);
#18=APPROVAL_ROLE('approver');
#19=APPROVAL_ROLE('approver');
#20=APPROVAL_ROLE('approver');
#21=APPROVAL_DATE_TIME(#39,#24);
#22=APPROVAL_DATE_TIME(#40,#25);
#23=APPROVAL_DATE_TIME(#41,#26);
#24=APPROVAL(#27,' ');
#25=APPROVAL(#28,' ');
#26=APPROVAL(#29,' ');
#27=APPROVAL_STATUS('not_yet_approved');
#28=APPROVAL_STATUS('not_yet_approved');
#29=APPROVAL_STATUS('not_yet_approved');
#30=CC_DESIGN_SECURITY_CLASSIFICATION(#31,(#84));
#31=SECURITY_CLASSIFICATION(' ',' ',#32);
#32=SECURITY_CLASSIFICATION_LEVEL('confidential');
#33=CC_DESIGN_DATE_AND_TIME_ASSIGNMENT(#37,#35,(#82));
#34=CC_DESIGN_DATE_AND_TIME_ASSIGNMENT(#38,#36,(#31));
#35=DATE_TIME_ROLE('creation_date');
#36=DATE_TIME_ROLE('classification_date');
#37=DATE_AND_TIME(#52,#42);
#38=DATE_AND_TIME(#53,#43);
#39=DATE_AND_TIME(#54,#44);
#40=DATE_AND_TIME(#55,#45);
#41=DATE_AND_TIME(#56,#46);
#42=LOCAL_TIME(0,0,0.,#47);
#43=LOCAL_TIME(0,0,0.,#48);
#44=LOCAL_TIME(0,0,0.,#49);
#45=LOCAL_TIME(0,0,0.,#50);
#46=LOCAL_TIME(0,0,0.,#51);
#47=COORDINATED_UNIVERSAL_TIME_OFFSET(0,0,.BEHIND.);
#48=COORDINATED_UNIVERSAL_TIME_OFFSET(0,0,.BEHIND.);
#49=COORDINATED_UNIVERSAL_TIME_OFFSET(0,0,.BEHIND.);
#50=COORDINATED_UNIVERSAL_TIME_OFFSET(0,0,.BEHIND.);
#51=COORDINATED_UNIVERSAL_TIME_OFFSET(0,0,.BEHIND.);
#52=CALENDAR_DATE(0,1,1);
#53=CALENDAR_DATE(0,1,1);
#54=CALENDAR_DATE(0,1,1);
#55=CALENDAR_DATE(0,1,1);
#56=CALENDAR_DATE(0,1,1);
#57=CC_DESIGN_PERSON_AND_ORGANIZATION_ASSIGNMENT(#65,#61,(#82,#84));
#58=CC_DESIGN_PERSON_AND_ORGANIZATION_ASSIGNMENT(#66,#62,(#86));
#59=CC_DESIGN_PERSON_AND_ORGANIZATION_ASSIGNMENT(#67,#63,(#84));
#60=CC_DESIGN_PERSON_AND_ORGANIZATION_ASSIGNMENT(#68,#64,(#31));
#61=PERSON_AND_ORGANIZATION_ROLE('creator');
#62=PERSON_AND_ORGANIZATION_ROLE('design_owner');
#63=PERSON_AND_ORGANIZATION_ROLE('design_supplier');
#64=PERSON_AND_ORGANIZATION_ROLE('classification_officer');
#65=PERSON_AND_ORGANIZATION(#79,#72);
#66=PERSON_AND_ORGANIZATION(#79,#73);
#67=PERSON_AND_ORGANIZATION(#79,#74);
#68=PERSON_AND_ORGANIZATION(#79,#75);
#69=PERSON_AND_ORGANIZATION(#79,#76);
#70=PERSON_AND_ORGANIZATION(#79,#77);
#71=PERSON_AND_ORGANIZATION(#79,#78);
#72=ORGANIZATION(' ',' ',' ');
#73=ORGANIZATION(' ',' ',' ');
#74=ORGANIZATION(' ',' ',' ');
#75=ORGANIZATION(' ',' ',' ');
#76=ORGANIZATION(' ',' ',' ');
#77=ORGANIZATION(' ',' ',' ');
#78=ORGANIZATION(' ',' ',' ');
#79=PERSON(' ',' ',' ',(' '),$,$);
#80=SHAPE_DEFINITION_REPRESENTATION(#81,#92);
#81=PRODUCT_DEFINITION_SHAPE('','',#82);
#82=PRODUCT_DEFINITION(' ','',#84,#83);
#83=DESIGN_CONTEXT('',#91,'design');
#84=PRODUCT_DEFINITION_FORMATION_WITH_SPECIFIED_SOURCE(' ',' ',#86,
 .NOT_KNOWN.);
#85=PRODUCT_RELATED_PRODUCT_CATEGORY('detail','',(#86));
#86=PRODUCT('vn17 050 0604 1 cnxm001-01','vn17 050 0604 1 cnxm001-01',
' ',(#89));
#87=PRODUCT_CATEGORY('part',' ');
#88=PRODUCT_CATEGORY(' ','');
#89=MECHANICAL_CONTEXT(' ',#91,'mechanical');
#90=APPLICATION_PROTOCOL_DEFINITION('international standard',
'config_control_design',2010,#91);
#91=APPLICATION_CONTEXT(
'configuration controlled 3D designs of mechanical parts and assemblie
s');
#92=SHAPE_REPRESENTATION('vn17 050 0604 1 cnxm001-01-None',(#400),#649);
#93=FACE_BOUND('',#176,.T.);
#94=FACE_BOUND('',#177,.T.);
#95=FACE_BOUND('',#178,.T.);
#96=FACE_BOUND('',#179,.T.);
#97=FACE_BOUND('',#180,.T.);
#98=FACE_BOUND('',#181,.T.);
#99=FACE_BOUND('',#182,.T.);
#100=FACE_BOUND('',#183,.T.);
#101=FACE_BOUND('',#187,.T.);
#102=FACE_BOUND('',#188,.T.);
#103=MANIFOLD_SOLID_BREP('1',#105);
#104=MANIFOLD_SOLID_BREP('',#106);
#105=CLOSED_SHELL('',(#119,#120,#121,#122,#123,#124,#125,#126,#127,#128));
#106=CLOSED_SHELL('',(#129,#130,#131,#132,#133,#134,#135,#136,#137,#138,
#139));
#107=PLANE('',#417);
#108=PLANE('',#418);
#109=PLANE('',#423);
#110=PLANE('',#425);
#111=PLANE('',#428);
#112=PLANE('',#432);
#113=PLANE('',#436);
#114=PLANE('',#438);
#115=PLANE('',#439);
#116=PLANE('',#442);
#117=PLANE('',#445);
#118=PLANE('',#446);
#119=ADVANCED_FACE('',(#149),#140,.T.);
#120=ADVANCED_FACE('',(#150),#141,.T.);
#121=ADVANCED_FACE('',(#151),#142,.F.);
#122=ADVANCED_FACE('',(#152),#143,.F.);
#123=ADVANCED_FACE('',(#153),#107,.F.);
#124=ADVANCED_FACE('',(#154),#108,.F.);
#125=ADVANCED_FACE('',(#155),#144,.F.);
#126=ADVANCED_FACE('',(#156),#109,.T.);
#127=ADVANCED_FACE('',(#157),#110,.T.);
#128=ADVANCED_FACE('',(#158),#145,.T.);
#129=ADVANCED_FACE('4-0-129',(#159),#111,.T.);
#130=ADVANCED_FACE('4-0-97',(#93,#94),#146,.T.);
#131=ADVANCED_FACE('4-0-81',(#95,#96),#112,.T.);
#132=ADVANCED_FACE('4-0-65',(#97,#98),#147,.T.);
#133=ADVANCED_FACE('4-0-49',(#99,#100),#113,.T.);
#134=ADVANCED_FACE('4-0-1',(#160),#114,.T.);
#135=ADVANCED_FACE('6-0-2',(#161),#115,.F.);
#136=ADVANCED_FACE('6-0-1',(#162),#116,.F.);
#137=ADVANCED_FACE('4-0-33',(#101,#102),#148,.T.);
#138=ADVANCED_FACE('6-0-4',(#163),#117,.F.);
#139=ADVANCED_FACE('4-0-1',(#164),#118,.T.);
#140=CYLINDRICAL_SURFACE('',#404,3.1);
#141=CYLINDRICAL_SURFACE('',#408,3.1);
#142=CYLINDRICAL_SURFACE('',#412,1.7);
#143=CYLINDRICAL_SURFACE('',#415,1.7);
#144=CYLINDRICAL_SURFACE('',#421,1.7);
#145=CYLINDRICAL_SURFACE('',#426,3.1);
#146=CYLINDRICAL_SURFACE('',#430,1.5);
#147=CYLINDRICAL_SURFACE('',#434,1.15);
#148=CYLINDRICAL_SURFACE('',#444,2.5);
#149=FACE_OUTER_BOUND('',#165,.T.);
#150=FACE_OUTER_BOUND('',#166,.T.);
#151=FACE_OUTER_BOUND('',#167,.T.);
#152=FACE_OUTER_BOUND('',#168,.T.);
#153=FACE_OUTER_BOUND('',#169,.T.);
#154=FACE_OUTER_BOUND('',#170,.T.);
#155=FACE_OUTER_BOUND('',#171,.T.);
#156=FACE_OUTER_BOUND('',#172,.T.);
#157=FACE_OUTER_BOUND('',#173,.T.);
#158=FACE_OUTER_BOUND('',#174,.T.);
#159=FACE_OUTER_BOUND('',#175,.T.);
#160=FACE_OUTER_BOUND('',#184,.T.);
#161=FACE_OUTER_BOUND('',#185,.T.);
#162=FACE_OUTER_BOUND('',#186,.T.);
#163=FACE_OUTER_BOUND('',#189,.T.);
#164=FACE_OUTER_BOUND('',#190,.T.);
#165=EDGE_LOOP('',(#216,#217,#218,#219));
#166=EDGE_LOOP('',(#220,#221,#222,#223));
#167=EDGE_LOOP('',(#224,#225,#226,#227));
#168=EDGE_LOOP('',(#228,#229,#230,#231));
#169=EDGE_LOOP('',(#232,#233,#234,#235));
#170=EDGE_LOOP('',(#236,#237,#238,#239));
#171=EDGE_LOOP('',(#240,#241,#242,#243));
#172=EDGE_LOOP('',(#244,#245,#246,#247,#248,#249,#250,#251));
#173=EDGE_LOOP('',(#252,#253,#254,#255,#256,#257,#258,#259));
#174=EDGE_LOOP('',(#260,#261,#262,#263));
#175=EDGE_LOOP('',(#264));
#176=EDGE_LOOP('',(#265));
#177=EDGE_LOOP('',(#266));
#178=EDGE_LOOP('',(#267));
#179=EDGE_LOOP('',(#268));
#180=EDGE_LOOP('',(#269));
#181=EDGE_LOOP('',(#270));
#182=EDGE_LOOP('',(#271));
#183=EDGE_LOOP('',(#272));
#184=EDGE_LOOP('',(#273,#274));
#185=EDGE_LOOP('',(#275,#276,#277,#278));
#186=EDGE_LOOP('',(#279,#280,#281,#282));
#187=EDGE_LOOP('',(#283,#284,#285,#286,#287,#288,#289,#290));
#188=EDGE_LOOP('',(#291));
#189=EDGE_LOOP('',(#292,#293,#294,#295));
#190=EDGE_LOOP('',(#296,#297));
#191=ELLIPSE('',#402,43.5105734276164,3.1);
#192=ELLIPSE('',#406,43.5105734276164,3.1);
#193=ELLIPSE('',#410,23.8606370409509,1.7);
#194=ELLIPSE('',#416,23.8606370409509,1.7);
#195=CIRCLE('',#401,3.1);
#196=CIRCLE('',#403,3.1);
#197=CIRCLE('',#405,3.1);
#198=CIRCLE('',#407,3.1);
#199=CIRCLE('',#409,1.7);
#200=CIRCLE('',#411,1.7);
#201=CIRCLE('',#413,1.7);
#202=CIRCLE('',#414,1.7);
#203=CIRCLE('',#419,1.7);
#204=CIRCLE('',#420,1.7);
#205=CIRCLE('',#422,3.1);
#206=CIRCLE('',#424,3.1);
#207=CIRCLE('',#427,1.5);
#208=CIRCLE('',#429,1.5);
#209=CIRCLE('',#431,1.15);
#210=CIRCLE('',#433,1.15);
#211=CIRCLE('',#435,2.5);
#212=CIRCLE('',#437,2.5);
#213=CIRCLE('',#440,2.5);
#214=CIRCLE('',#441,2.5);
#215=CIRCLE('',#443,2.5);
#216=ORIENTED_EDGE('',*,*,#327,.F.);
#217=ORIENTED_EDGE('',*,*,#328,.F.);
#218=ORIENTED_EDGE('',*,*,#329,.T.);
#219=ORIENTED_EDGE('',*,*,#330,.T.);
#220=ORIENTED_EDGE('',*,*,#331,.F.);
#221=ORIENTED_EDGE('',*,*,#332,.T.);
#222=ORIENTED_EDGE('',*,*,#333,.T.);
#223=ORIENTED_EDGE('',*,*,#334,.F.);
#224=ORIENTED_EDGE('',*,*,#335,.T.);
#225=ORIENTED_EDGE('',*,*,#336,.F.);
#226=ORIENTED_EDGE('',*,*,#337,.T.);
#227=ORIENTED_EDGE('',*,*,#338,.T.);
#228=ORIENTED_EDGE('',*,*,#339,.F.);
#229=ORIENTED_EDGE('',*,*,#340,.F.);
#230=ORIENTED_EDGE('',*,*,#335,.F.);
#231=ORIENTED_EDGE('',*,*,#341,.T.);
#232=ORIENTED_EDGE('',*,*,#342,.F.);
#233=ORIENTED_EDGE('',*,*,#343,.F.);
#234=ORIENTED_EDGE('',*,*,#344,.F.);
#235=ORIENTED_EDGE('',*,*,#333,.F.);
#236=ORIENTED_EDGE('',*,*,#345,.F.);
#237=ORIENTED_EDGE('',*,*,#329,.F.);
#238=ORIENTED_EDGE('',*,*,#346,.F.);
#239=ORIENTED_EDGE('',*,*,#337,.F.);
#240=ORIENTED_EDGE('',*,*,#339,.T.);
#241=ORIENTED_EDGE('',*,*,#347,.T.);
#242=ORIENTED_EDGE('',*,*,#343,.T.);
#243=ORIENTED_EDGE('',*,*,#348,.F.);
#244=ORIENTED_EDGE('',*,*,#344,.T.);
#245=ORIENTED_EDGE('',*,*,#347,.F.);
#246=ORIENTED_EDGE('',*,*,#341,.F.);
#247=ORIENTED_EDGE('',*,*,#338,.F.);
#248=ORIENTED_EDGE('',*,*,#346,.T.);
#249=ORIENTED_EDGE('',*,*,#328,.T.);
#250=ORIENTED_EDGE('',*,*,#349,.T.);
#251=ORIENTED_EDGE('',*,*,#334,.T.);
#252=ORIENTED_EDGE('',*,*,#342,.T.);
#253=ORIENTED_EDGE('',*,*,#332,.F.);
#254=ORIENTED_EDGE('',*,*,#350,.F.);
#255=ORIENTED_EDGE('',*,*,#330,.F.);
#256=ORIENTED_EDGE('',*,*,#345,.T.);
#257=ORIENTED_EDGE('',*,*,#336,.T.);
#258=ORIENTED_EDGE('',*,*,#340,.T.);
#259=ORIENTED_EDGE('',*,*,#348,.T.);
#260=ORIENTED_EDGE('',*,*,#331,.T.);
#261=ORIENTED_EDGE('',*,*,#349,.F.);
#262=ORIENTED_EDGE('',*,*,#327,.T.);
#263=ORIENTED_EDGE('',*,*,#350,.T.);
#264=ORIENTED_EDGE('',*,*,#351,.T.);
#265=ORIENTED_EDGE('',*,*,#351,.F.);
#266=ORIENTED_EDGE('',*,*,#352,.F.);
#267=ORIENTED_EDGE('',*,*,#353,.F.);
#268=ORIENTED_EDGE('',*,*,#352,.T.);
#269=ORIENTED_EDGE('',*,*,#353,.T.);
#270=ORIENTED_EDGE('',*,*,#354,.T.);
#271=ORIENTED_EDGE('',*,*,#354,.F.);
#272=ORIENTED_EDGE('',*,*,#355,.F.);
#273=ORIENTED_EDGE('',*,*,#356,.F.);
#274=ORIENTED_EDGE('',*,*,#357,.T.);
#275=ORIENTED_EDGE('',*,*,#358,.T.);
#276=ORIENTED_EDGE('',*,*,#359,.F.);
#277=ORIENTED_EDGE('',*,*,#357,.F.);
#278=ORIENTED_EDGE('',*,*,#360,.F.);
#279=ORIENTED_EDGE('',*,*,#358,.F.);
#280=ORIENTED_EDGE('',*,*,#361,.F.);
#281=ORIENTED_EDGE('',*,*,#362,.F.);
#282=ORIENTED_EDGE('',*,*,#363,.F.);
#283=ORIENTED_EDGE('',*,*,#356,.T.);
#284=ORIENTED_EDGE('',*,*,#359,.T.);
#285=ORIENTED_EDGE('',*,*,#363,.T.);
#286=ORIENTED_EDGE('',*,*,#364,.T.);
#287=ORIENTED_EDGE('',*,*,#365,.T.);
#288=ORIENTED_EDGE('',*,*,#366,.T.);
#289=ORIENTED_EDGE('',*,*,#361,.T.);
#290=ORIENTED_EDGE('',*,*,#360,.T.);
#291=ORIENTED_EDGE('',*,*,#355,.T.);
#292=ORIENTED_EDGE('',*,*,#362,.T.);
#293=ORIENTED_EDGE('',*,*,#366,.F.);
#294=ORIENTED_EDGE('',*,*,#367,.F.);
#295=ORIENTED_EDGE('',*,*,#364,.F.);
#296=ORIENTED_EDGE('',*,*,#367,.T.);
#297=ORIENTED_EDGE('',*,*,#365,.F.);
#298=VERTEX_POINT('',#559);
#299=VERTEX_POINT('',#560);
#300=VERTEX_POINT('',#562);
#301=VERTEX_POINT('',#564);
#302=VERTEX_POINT('',#568);
#303=VERTEX_POINT('',#569);
#304=VERTEX_POINT('',#571);
#305=VERTEX_POINT('',#573);
#306=VERTEX_POINT('',#577);
#307=VERTEX_POINT('',#578);
#308=VERTEX_POINT('',#580);
#309=VERTEX_POINT('',#582);
#310=VERTEX_POINT('',#586);
#311=VERTEX_POINT('',#587);
#312=VERTEX_POINT('',#592);
#313=VERTEX_POINT('',#594);
#314=VERTEX_POINT('',#609);
#315=VERTEX_POINT('',#612);
#316=VERTEX_POINT('',#615);
#317=VERTEX_POINT('',#618);
#318=VERTEX_POINT('',#621);
#319=VERTEX_POINT('',#624);
#320=VERTEX_POINT('',#625);
#321=VERTEX_POINT('',#629);
#322=VERTEX_POINT('',#630);
#323=VERTEX_POINT('',#635);
#324=VERTEX_POINT('',#637);
#325=VERTEX_POINT('',#641);
#326=VERTEX_POINT('',#643);
#327=EDGE_CURVE('',#298,#299,#368,.T.);
#328=EDGE_CURVE('',#300,#298,#195,.T.);
#329=EDGE_CURVE('',#300,#301,#191,.T.);
#330=EDGE_CURVE('',#301,#299,#196,.T.);
#331=EDGE_CURVE('',#302,#303,#369,.T.);
#332=EDGE_CURVE('',#302,#304,#197,.T.);
#333=EDGE_CURVE('',#304,#305,#192,.T.);
#334=EDGE_CURVE('',#303,#305,#198,.T.);
#335=EDGE_CURVE('',#306,#307,#370,.T.);
#336=EDGE_CURVE('',#308,#307,#199,.T.);
#337=EDGE_CURVE('',#308,#309,#193,.T.);
#338=EDGE_CURVE('',#309,#306,#200,.T.);
#339=EDGE_CURVE('',#310,#311,#371,.T.);
#340=EDGE_CURVE('',#307,#310,#201,.T.);
#341=EDGE_CURVE('',#306,#311,#202,.T.);
#342=EDGE_CURVE('',#312,#304,#372,.T.);
#343=EDGE_CURVE('',#313,#312,#194,.T.);
#344=EDGE_CURVE('',#305,#313,#373,.T.);
#345=EDGE_CURVE('',#301,#308,#374,.T.);
#346=EDGE_CURVE('',#309,#300,#375,.T.);
#347=EDGE_CURVE('',#311,#313,#203,.T.);
#348=EDGE_CURVE('',#310,#312,#204,.T.);
#349=EDGE_CURVE('',#298,#303,#205,.T.);
#350=EDGE_CURVE('',#299,#302,#206,.T.);
#351=EDGE_CURVE('',#314,#314,#207,.T.);
#352=EDGE_CURVE('',#315,#315,#208,.T.);
#353=EDGE_CURVE('',#316,#316,#209,.T.);
#354=EDGE_CURVE('',#317,#317,#210,.T.);
#355=EDGE_CURVE('',#318,#318,#211,.T.);
#356=EDGE_CURVE('',#319,#320,#212,.T.);
#357=EDGE_CURVE('',#319,#320,#376,.T.);
#358=EDGE_CURVE('',#321,#322,#377,.T.);
#359=EDGE_CURVE('',#320,#322,#378,.T.);
#360=EDGE_CURVE('',#321,#319,#379,.T.);
#361=EDGE_CURVE('',#323,#321,#213,.T.);
#362=EDGE_CURVE('',#324,#323,#380,.T.);
#363=EDGE_CURVE('',#322,#324,#214,.T.);
#364=EDGE_CURVE('',#324,#325,#381,.T.);
#365=EDGE_CURVE('',#325,#326,#215,.T.);
#366=EDGE_CURVE('',#326,#323,#382,.T.);
#367=EDGE_CURVE('',#325,#326,#383,.T.);
#368=LINE('',#558,#384);
#369=LINE('',#567,#385);
#370=LINE('',#576,#386);
#371=LINE('',#585,#387);
#372=LINE('',#591,#388);
#373=LINE('',#595,#389);
#374=LINE('',#597,#390);
#375=LINE('',#598,#391);
#376=LINE('',#626,#392);
#377=LINE('',#628,#393);
#378=LINE('',#631,#394);
#379=LINE('',#632,#395);
#380=LINE('',#636,#396);
#381=LINE('',#640,#397);
#382=LINE('',#644,#398);
#383=LINE('',#646,#399);
#384=VECTOR('',#449,1.);
#385=VECTOR('',#458,1.);
#386=VECTOR('',#467,1.);
#387=VECTOR('',#476,1.);
#388=VECTOR('',#483,1.);
#389=VECTOR('',#486,1.);
#390=VECTOR('',#489,1.);
#391=VECTOR('',#490,1.);
#392=VECTOR('',#531,1.);
#393=VECTOR('',#534,1.);
#394=VECTOR('',#535,1.);
#395=VECTOR('',#536,1.);
#396=VECTOR('',#541,1.);
#397=VECTOR('',#546,1.);
#398=VECTOR('',#549,1.);
#399=VECTOR('',#552,1.);
#400=AXIS2_PLACEMENT_3D('',#557,#447,#448);
#401=AXIS2_PLACEMENT_3D('',#561,#450,#451);
#402=AXIS2_PLACEMENT_3D('',#563,#452,#453);
#403=AXIS2_PLACEMENT_3D('',#565,#454,#455);
#404=AXIS2_PLACEMENT_3D('',#566,#456,#457);
#405=AXIS2_PLACEMENT_3D('',#570,#459,#460);
#406=AXIS2_PLACEMENT_3D('',#572,#461,#462);
#407=AXIS2_PLACEMENT_3D('',#574,#463,#464);
#408=AXIS2_PLACEMENT_3D('',#575,#465,#466);
#409=AXIS2_PLACEMENT_3D('',#579,#468,#469);
#410=AXIS2_PLACEMENT_3D('',#581,#470,#471);
#411=AXIS2_PLACEMENT_3D('',#583,#472,#473);
#412=AXIS2_PLACEMENT_3D('',#584,#474,#475);
#413=AXIS2_PLACEMENT_3D('',#588,#477,#478);
#414=AXIS2_PLACEMENT_3D('',#589,#479,#480);
#415=AXIS2_PLACEMENT_3D('',#590,#481,#482);
#416=AXIS2_PLACEMENT_3D('',#593,#484,#485);
#417=AXIS2_PLACEMENT_3D('',#596,#487,#488);
#418=AXIS2_PLACEMENT_3D('',#599,#491,#492);
#419=AXIS2_PLACEMENT_3D('',#600,#493,#494);
#420=AXIS2_PLACEMENT_3D('',#601,#495,#496);
#421=AXIS2_PLACEMENT_3D('',#602,#497,#498);
#422=AXIS2_PLACEMENT_3D('',#603,#499,#500);
#423=AXIS2_PLACEMENT_3D('',#604,#501,#502);
#424=AXIS2_PLACEMENT_3D('',#605,#503,#504);
#425=AXIS2_PLACEMENT_3D('',#606,#505,#506);
#426=AXIS2_PLACEMENT_3D('',#607,#507,#508);
#427=AXIS2_PLACEMENT_3D('',#608,#509,#510);
#428=AXIS2_PLACEMENT_3D('',#610,#511,#512);
#429=AXIS2_PLACEMENT_3D('',#611,#513,#514);
#430=AXIS2_PLACEMENT_3D('',#613,#515,#516);
#431=AXIS2_PLACEMENT_3D('',#614,#517,#518);
#432=AXIS2_PLACEMENT_3D('',#616,#519,#520);
#433=AXIS2_PLACEMENT_3D('',#617,#521,#522);
#434=AXIS2_PLACEMENT_3D('',#619,#523,#524);
#435=AXIS2_PLACEMENT_3D('',#620,#525,#526);
#436=AXIS2_PLACEMENT_3D('',#622,#527,#528);
#437=AXIS2_PLACEMENT_3D('',#623,#529,#530);
#438=AXIS2_PLACEMENT_3D('',#627,#532,#533);
#439=AXIS2_PLACEMENT_3D('',#633,#537,#538);
#440=AXIS2_PLACEMENT_3D('',#634,#539,#540);
#441=AXIS2_PLACEMENT_3D('',#638,#542,#543);
#442=AXIS2_PLACEMENT_3D('',#639,#544,#545);
#443=AXIS2_PLACEMENT_3D('',#642,#547,#548);
#444=AXIS2_PLACEMENT_3D('',#645,#550,#551);
#445=AXIS2_PLACEMENT_3D('',#647,#553,#554);
#446=AXIS2_PLACEMENT_3D('',#648,#555,#556);
#447=DIRECTION('',(0.,0.,1.));
#448=DIRECTION('',(1.,0.,0.));
#449=DIRECTION('',(0.,1.,0.));
#450=DIRECTION('',(0.,-1.,0.));
#451=DIRECTION('',(0.,0.,-1.));
#452=DIRECTION('',(0.,-0.0712470499879097,0.997458699830735));
#453=DIRECTION('',(0.,-0.997458699830735,-0.0712470499879097));
#454=DIRECTION('',(0.,-1.,0.));
#455=DIRECTION('',(0.,0.,-1.));
#456=DIRECTION('',(0.,1.,0.));
#457=DIRECTION('',(0.,0.,1.));
#458=DIRECTION('',(0.,-1.,0.));
#459=DIRECTION('',(0.,-1.,0.));
#460=DIRECTION('',(0.,0.,-1.));
#461=DIRECTION('',(0.,0.0712470499879097,-0.997458699830735));
#462=DIRECTION('',(0.,-0.997458699830735,-0.0712470499879097));
#463=DIRECTION('',(0.,-1.,0.));
#464=DIRECTION('',(0.,0.,-1.));
#465=DIRECTION('',(0.,1.,0.));
#466=DIRECTION('',(0.,0.,1.));
#467=DIRECTION('',(0.,1.,0.));
#468=DIRECTION('',(0.,-1.,0.));
#469=DIRECTION('',(0.,0.,-1.));
#470=DIRECTION('',(0.,0.0712470499879096,-0.997458699830735));
#471=DIRECTION('',(0.,-0.997458699830735,-0.0712470499879096));
#472=DIRECTION('',(0.,-1.,0.));
#473=DIRECTION('',(0.,0.,-1.));
#474=DIRECTION('',(0.,1.,0.));
#475=DIRECTION('',(0.,0.,1.));
#476=DIRECTION('',(0.,-1.,0.));
#477=DIRECTION('',(0.,-1.,0.));
#478=DIRECTION('',(0.,0.,-1.));
#479=DIRECTION('',(0.,-1.,0.));
#480=DIRECTION('',(0.,0.,-1.));
#481=DIRECTION('',(0.,1.,0.));
#482=DIRECTION('',(0.,0.,1.));
#483=DIRECTION('',(1.,0.,0.));
#484=DIRECTION('',(0.,-0.0712470499879096,0.997458699830735));
#485=DIRECTION('',(0.,-0.997458699830735,-0.0712470499879096));
#486=DIRECTION('',(-1.,0.,0.));
#487=DIRECTION('',(0.,0.0712470499879096,-0.997458699830735));
#488=DIRECTION('',(0.,-0.997458699830735,-0.0712470499879096));
#489=DIRECTION('',(-1.,0.,0.));
#490=DIRECTION('',(1.,0.,0.));
#491=DIRECTION('',(0.,-0.0712470499879096,0.997458699830735));
#492=DIRECTION('',(0.,0.997458699830735,0.0712470499879096));
#493=DIRECTION('',(0.,-1.,0.));
#494=DIRECTION('',(0.,0.,-1.));
#495=DIRECTION('',(0.,-1.,0.));
#496=DIRECTION('',(0.,0.,-1.));
#497=DIRECTION('',(0.,1.,0.));
#498=DIRECTION('',(0.,0.,1.));
#499=DIRECTION('',(0.,-1.,0.));
#500=DIRECTION('',(0.,0.,-1.));
#501=DIRECTION('',(0.,-1.,0.));
#502=DIRECTION('',(0.,0.,1.));
#503=DIRECTION('',(0.,-1.,0.));
#504=DIRECTION('',(0.,0.,-1.));
#505=DIRECTION('',(0.,1.,0.));
#506=DIRECTION('',(0.,0.,-1.));
#507=DIRECTION('',(0.,1.,0.));
#508=DIRECTION('',(0.,0.,1.));
#509=DIRECTION('',(0.,1.,0.));
#510=DIRECTION('',(0.,0.,1.));
#511=DIRECTION('',(0.,1.,0.));
#512=DIRECTION('',(0.,0.,1.));
#513=DIRECTION('',(-1.37064570941377E-015,-1.,0.));
#514=DIRECTION('',(-1.,2.31296463463574E-015,0.));
#515=DIRECTION('',(-1.00184133729741E-015,-1.,-1.46081976924363E-015));
#516=DIRECTION('',(-1.,0.,1.15327876519234E-016));
#517=DIRECTION('',(0.,-1.,0.));
#518=DIRECTION('',(-1.,0.,6.59481652024246E-017));
#519=DIRECTION('',(0.,-1.,0.));
#520=DIRECTION('',(0.,0.,1.));
#521=DIRECTION('',(0.,1.,0.));
#522=DIRECTION('',(0.,0.,1.));
#523=DIRECTION('',(7.28394956963472E-016,-1.,-1.26161707343768E-015));
#524=DIRECTION('',(-1.,0.,0.));
#525=DIRECTION('',(1.22567739954085E-015,-1.,-6.03382078600629E-016));
#526=DIRECTION('',(-1.,-1.38777878078145E-015,6.55850085435465E-017));
#527=DIRECTION('',(0.,1.,0.));
#528=DIRECTION('',(0.,0.,1.));
#529=DIRECTION('',(0.,1.,0.));
#530=DIRECTION('',(0.,0.,-1.));
#531=DIRECTION('',(0.,0.,1.));
#532=DIRECTION('',(0.,-1.,0.));
#533=DIRECTION('',(0.,0.,1.));
#534=DIRECTION('',(2.21311841717207E-017,-4.42623683434414E-017,1.));
#535=DIRECTION('',(-1.54886024640786E-016,1.,0.));
#536=DIRECTION('',(1.54886024640786E-016,-1.,0.));
#537=DIRECTION('',(-1.,-1.80700362080917E-016,0.));
#538=DIRECTION('',(1.80736502153334E-016,-1.,0.));
#539=DIRECTION('',(-4.48512574501365E-016,1.,-1.37530140361457E-016));
#540=DIRECTION('',(0.2,-8.67361737988404E-017,-0.979795897113271));
#541=DIRECTION('',(0.,0.,-1.));
#542=DIRECTION('',(-4.75179176213322E-016,1.,4.10034716136297E-016));
#543=DIRECTION('',(-0.2,-5.20417042793042E-016,0.979795897113271));
#544=DIRECTION('',(0.,1.,0.));
#545=DIRECTION('',(-1.,0.,0.));
#546=DIRECTION('',(-9.29316147844715E-016,-1.,-6.19544098563143E-016));
#547=DIRECTION('',(0.,1.,0.));
#548=DIRECTION('',(0.,0.,-1.));
#549=DIRECTION('',(9.29316147844718E-016,1.,6.19544098563145E-016));
#550=DIRECTION('',(4.3652143692632E-016,-1.,-3.01691039300314E-016));
#551=DIRECTION('',(-1.,-6.93889390390723E-016,-6.55850085435464E-017));
#552=DIRECTION('',(0.,0.,-1.));
#553=DIRECTION('',(1.,-9.03501810404587E-016,0.));
#554=DIRECTION('',(9.03465670332171E-016,1.,0.));
#555=DIRECTION('',(0.,-1.,0.));
#556=DIRECTION('',(0.,0.,1.));
#557=CARTESIAN_POINT('',(0.,0.,0.));
#558=CARTESIAN_POINT('',(0.0010016402954803,13.0057368030476,3.1));
#559=CARTESIAN_POINT('',(0.0010016402954803,12.6057368030476,3.1));
#560=CARTESIAN_POINT('',(0.0010016402954803,13.4057368030476,3.1));
#561=CARTESIAN_POINT('',(0.00100164029547992,12.6057368030476,0.));
#562=CARTESIAN_POINT('',(3.09899835970455,12.6057368030476,0.111428571428571));
#563=CARTESIAN_POINT('',(0.00100164029547992,11.0457368030476,0.));
#564=CARTESIAN_POINT('',(3.09641496866851,13.4057368030476,0.168571428571429));
#565=CARTESIAN_POINT('',(0.00100164029547992,13.4057368030476,0.));
#566=CARTESIAN_POINT('',(0.00100164029547992,13.0057368030476,0.));
#567=CARTESIAN_POINT('',(0.00100164029547954,13.0057368030476,-3.1));
#568=CARTESIAN_POINT('',(0.00100164029547954,13.4057368030476,-3.1));
#569=CARTESIAN_POINT('',(0.00100164029547954,12.6057368030476,-3.1));
#570=CARTESIAN_POINT('',(0.00100164029547992,13.4057368030476,0.));
#571=CARTESIAN_POINT('',(3.09899835970455,13.4057368030476,-0.111428571428571));
#572=CARTESIAN_POINT('',(0.00100164029547992,14.9657368030476,0.));
#573=CARTESIAN_POINT('',(3.09641496866851,12.6057368030476,-0.168571428571429));
#574=CARTESIAN_POINT('',(0.00100164029547992,12.6057368030476,0.));
#575=CARTESIAN_POINT('',(0.00100164029547992,13.0057368030476,0.));
#576=CARTESIAN_POINT('',(0.00100164029548012,13.0057368030476,1.7));
#577=CARTESIAN_POINT('',(0.00100164029548012,12.6057368030476,1.7));
#578=CARTESIAN_POINT('',(0.00100164029548012,13.4057368030476,1.7));
#579=CARTESIAN_POINT('',(0.00100164029547992,13.4057368030476,0.));
#580=CARTESIAN_POINT('',(1.69262325090152,13.4057368030476,0.168571428571429));
#581=CARTESIAN_POINT('',(0.00100164029547992,11.0457368030476,0.));
#582=CARTESIAN_POINT('',(1.69734584872412,12.6057368030476,0.111428571428571));
#583=CARTESIAN_POINT('',(0.00100164029547992,12.6057368030476,0.));
#584=CARTESIAN_POINT('',(0.00100164029547992,13.0057368030476,0.));
#585=CARTESIAN_POINT('',(0.00100164029547971,13.0057368030476,-1.7));
#586=CARTESIAN_POINT('',(0.00100164029547971,13.4057368030476,-1.7));
#587=CARTESIAN_POINT('',(0.00100164029547971,12.6057368030476,-1.7));
#588=CARTESIAN_POINT('',(0.00100164029547992,13.4057368030476,0.));
#589=CARTESIAN_POINT('',(0.00100164029547992,12.6057368030476,0.));
#590=CARTESIAN_POINT('',(0.00100164029547992,13.0057368030476,0.));
#591=CARTESIAN_POINT('',(0.00100164029547992,13.4057368030476,-0.111428571428571));
#592=CARTESIAN_POINT('',(1.69734584872412,13.4057368030476,-0.111428571428571));
#593=CARTESIAN_POINT('',(0.00100164029547992,14.9657368030476,0.));
#594=CARTESIAN_POINT('',(1.69262325090152,12.6057368030476,-0.168571428571429));
#595=CARTESIAN_POINT('',(0.00100164029547992,12.6057368030476,-0.168571428571429));
#596=CARTESIAN_POINT('',(0.00100164029547992,14.4057368030476,-0.04));
#597=CARTESIAN_POINT('',(0.00100164029547992,13.4057368030476,0.168571428571428));
#598=CARTESIAN_POINT('',(0.00100164029547992,12.6057368030476,0.111428571428571));
#599=CARTESIAN_POINT('',(0.00100164029547992,11.6057368030476,0.04));
#600=CARTESIAN_POINT('',(0.00100164029547992,12.6057368030476,0.));
#601=CARTESIAN_POINT('',(0.00100164029547992,13.4057368030476,0.));
#602=CARTESIAN_POINT('',(0.00100164029547992,13.0057368030476,0.));
#603=CARTESIAN_POINT('',(0.00100164029547992,12.6057368030476,0.));
#604=CARTESIAN_POINT('',(0.00100164029547992,12.6057368030476,-2.4));
#605=CARTESIAN_POINT('',(0.00100164029547992,13.4057368030476,0.));
#606=CARTESIAN_POINT('',(0.00100164029547992,13.4057368030476,-2.4));
#607=CARTESIAN_POINT('',(0.00100164029547992,13.0057368030476,0.));
#608=CARTESIAN_POINT('',(-5.17642213148993E-015,22.5,3.66166007948567E-015));
#609=CARTESIAN_POINT('',(-5.17642213148993E-015,22.5,1.5));
#610=CARTESIAN_POINT('',(-1.375,22.5,-1.375));
#611=CARTESIAN_POINT('',(-7.15573433840433E-015,17.5,0.));
#612=CARTESIAN_POINT('',(-1.50000000000001,17.5,0.));
#613=CARTESIAN_POINT('',(-5.42688246581428E-015,22.25,3.29645513717476E-015));
#614=CARTESIAN_POINT('',(-6.72205346941013E-015,17.5,-7.58403899827886E-017));
#615=CARTESIAN_POINT('',(-1.15000000000001,17.5,-3.25000678115346E-031));
#616=CARTESIAN_POINT('',(1.65,17.5,-1.65));
#617=CARTESIAN_POINT('',(-3.85160559977217E-015,12.,-3.46944695195363E-015));
#618=CARTESIAN_POINT('',(-3.85160559977217E-015,12.,1.15));
#619=CARTESIAN_POINT('',(-7.85777786307127E-015,17.5,3.46944695195362E-015));
#620=CARTESIAN_POINT('',(-4.77048955893622E-015,12.,-1.63962521358866E-016));
#621=CARTESIAN_POINT('',(-2.5,12.,2.40741243048404E-031));
#622=CARTESIAN_POINT('',(-2.75,12.,-2.75));
#623=CARTESIAN_POINT('',(-1.17486884015832E-015,0.,-1.7216064742681E-015));
#624=CARTESIAN_POINT('',(-0.5,0.,-2.44948974278318));
#625=CARTESIAN_POINT('',(-0.5,0.,2.44948974278318));
#626=CARTESIAN_POINT('',(-0.5,2.81892564846231E-015,-1.93649167310372));
#627=CARTESIAN_POINT('',(2.2,0.,-2.2));
#628=CARTESIAN_POINT('',(-0.5,1.2,-2.44948974278318));
#629=CARTESIAN_POINT('',(-0.5,1.2,-2.44948974278318));
#630=CARTESIAN_POINT('',(-0.5,1.2,2.44948974278317));
#631=CARTESIAN_POINT('',(-0.5,0.5,2.44948974278317));
#632=CARTESIAN_POINT('',(-0.5,1.2,-2.44948974278318));
#633=CARTESIAN_POINT('',(-0.5,1.2,-3.));
#634=CARTESIAN_POINT('',(-7.58941520739853E-016,1.2,-8.67361737988404E-016));
#635=CARTESIAN_POINT('',(0.5,1.2,-2.44948974278318));
#636=CARTESIAN_POINT('',(0.5,1.2,2.44948974278317));
#637=CARTESIAN_POINT('',(0.5,1.2,2.44948974278317));
#638=CARTESIAN_POINT('',(-2.38524477946811E-015,1.2,-6.93889390390723E-015));
#639=CARTESIAN_POINT('',(0.5,1.2,-3.));
#640=CARTESIAN_POINT('',(0.5,1.2,2.44948974278317));
#641=CARTESIAN_POINT('',(0.5,0.,2.44948974278317));
#642=CARTESIAN_POINT('',(-1.17486884015832E-015,0.,-1.7216064742681E-015));
#643=CARTESIAN_POINT('',(0.5,0.,-2.44948974278318));
#644=CARTESIAN_POINT('',(0.5,0.5,-2.44948974278318));
#645=CARTESIAN_POINT('',(-6.41312608327416E-015,12.,1.89868599733567E-015));
#646=CARTESIAN_POINT('',(0.5,2.05998412772246E-015,1.93649167310372));
#647=CARTESIAN_POINT('',(0.5,2.05998412772246E-015,-3.));
#648=CARTESIAN_POINT('',(2.2,0.,-2.2));
#649=(
GEOMETRIC_REPRESENTATION_CONTEXT(3)
GLOBAL_UNCERTAINTY_ASSIGNED_CONTEXT((#650))
GLOBAL_UNIT_ASSIGNED_CONTEXT((#656,#652,#651))
REPRESENTATION_CONTEXT('C3D_VN17_050_0604_1_Rev01',
'TOP_LEVEL_ASSEMBLY_PART')
);
#650=UNCERTAINTY_MEASURE_WITH_UNIT(LENGTH_MEASURE(2.E-005),#656,
'DISTANCE_ACCURACY_VALUE','Maximum Tolerance applied to model');
#651=(
NAMED_UNIT(*)
SI_UNIT($,.STERADIAN.)
SOLID_ANGLE_UNIT()
);
#652=(
CONVERSION_BASED_UNIT('DEGREE',#654)
NAMED_UNIT(#653)
PLANE_ANGLE_UNIT()
);
#653=DIMENSIONAL_EXPONENTS(0.,0.,0.,0.,0.,0.,0.);
#654=PLANE_ANGLE_MEASURE_WITH_UNIT(PLANE_ANGLE_MEASURE(0.0174532925),#655);
#655=(
NAMED_UNIT(*)
PLANE_ANGLE_UNIT()
SI_UNIT($,.RADIAN.)
);
#656=(
LENGTH_UNIT()
NAMED_UNIT(*)
SI_UNIT(.MILLI.,.METRE.)
);
ENDSEC;
END-ISO-10303-21;
