ISO-10303-21;
HEADER;
/* Generated by software containing ST-Developer
 * from STEP Tools, Inc. (www.steptools.com) 
 */
/* OPTION: using custom schema-name function */

FILE_DESCRIPTION(
/* description */ (''),
/* implementation_level */ '2;1');

FILE_NAME(
/* name */ 'n 16 013 0010nxc001-03.stp',
/* time_stamp */ '2019-07-25T10:25:54+02:00',
/* author */ (''),
/* organization */ (''),
/* preprocessor_version */ 'ST-DEVELOPER v16.7',
/* originating_system */ 'SIEMENS PLM Software NX 12.0',
/* authorisation */ '');

FILE_SCHEMA (('AUTOMOTIVE_DESIGN { 1 0 10303 214 3 1 1 1 }'));
ENDSEC;

DATA;
#10=SHAPE_REPRESENTATION_RELATIONSHIP('None',
'relationship between n 16 013 0010nxc001-03-None and n 16 013 0010nxc
001-03-None',#22,#11);
#11=ADVANCED_BREP_SHAPE_REPRESENTATION('n 16 013 0010nxc001-03-None',(#32),
#339);
#12=SHAPE_DEFINITION_REPRESENTATION(#13,#22);
#13=PRODUCT_DEFINITION_SHAPE('','',#14);
#14=PRODUCT_DEFINITION(' ','',#16,#15);
#15=PRODUCT_DEFINITION_CONTEXT('part definition',#21,'design');
#16=PRODUCT_DEFINITION_FORMATION_WITH_SPECIFIED_SOURCE(' ',' ',#18,
 .NOT_KNOWN.);
#17=PRODUCT_RELATED_PRODUCT_CATEGORY('part','',(#18));
#18=PRODUCT('n 16 013 0010nxc001-03','n 16 013 0010nxc001-03',' ',(#19));
#19=PRODUCT_CONTEXT(' ',#21,'mechanical');
#20=APPLICATION_PROTOCOL_DEFINITION('international standard',
'automotive_design',2010,#21);
#21=APPLICATION_CONTEXT(
'core data for automotive mechanical design processes');
#22=SHAPE_REPRESENTATION('n 16 013 0010nxc001-03-None',(#199),#339);
#23=PRESENTATION_LAYER_ASSIGNMENT('1','Layer 1',(#32));
#24=STYLED_ITEM('',(#25),#32);
#25=PRESENTATION_STYLE_ASSIGNMENT((#26));
#26=SURFACE_STYLE_USAGE(.BOTH.,#27);
#27=SURFACE_SIDE_STYLE('',(#28));
#28=SURFACE_STYLE_FILL_AREA(#29);
#29=FILL_AREA_STYLE('',(#30));
#30=FILL_AREA_STYLE_COLOUR('',#31);
#31=COLOUR_RGB('Medium Gray',0.490196078431373,0.490196078431373,0.490196078431373);
#32=MANIFOLD_SOLID_BREP('',#33);
#33=CLOSED_SHELL('',(#43,#44,#45,#46,#47,#48,#49,#50,#51,#52,#53,#54,#55,
#56,#57));
#34=CYLINDRICAL_SURFACE('',#208,9.545);
#35=CYLINDRICAL_SURFACE('',#212,8.5);
#36=CYLINDRICAL_SURFACE('',#216,10.2);
#37=CYLINDRICAL_SURFACE('',#220,9.53);
#38=CYLINDRICAL_SURFACE('',#224,11.);
#39=CYLINDRICAL_SURFACE('',#227,9.55);
#40=CONICAL_SURFACE('',#205,9.575,45.);
#41=CONICAL_SURFACE('',#213,8.5,44.9999999999999);
#42=CONICAL_SURFACE('',#229,9.2,45.);
#43=ADVANCED_FACE('',(#64,#65),#58,.T.);
#44=ADVANCED_FACE('',(#66,#67),#40,.F.);
#45=ADVANCED_FACE('',(#68,#69),#34,.F.);
#46=ADVANCED_FACE('',(#70,#71),#59,.F.);
#47=ADVANCED_FACE('',(#72,#73),#35,.F.);
#48=ADVANCED_FACE('',(#74,#75),#41,.F.);
#49=ADVANCED_FACE('',(#76,#77),#36,.T.);
#50=ADVANCED_FACE('',(#78,#79),#60,.T.);
#51=ADVANCED_FACE('',(#80,#81),#37,.T.);
#52=ADVANCED_FACE('',(#82,#83),#61,.T.);
#53=ADVANCED_FACE('',(#84,#85),#38,.T.);
#54=ADVANCED_FACE('',(#86,#87),#62,.T.);
#55=ADVANCED_FACE('',(#88,#89),#39,.F.);
#56=ADVANCED_FACE('',(#90,#91),#63,.F.);
#57=ADVANCED_FACE('',(#92,#93),#42,.T.);
#58=PLANE('',#202);
#59=PLANE('',#210);
#60=PLANE('',#218);
#61=PLANE('',#222);
#62=PLANE('',#225);
#63=PLANE('',#228);
#64=FACE_BOUND('',#94,.T.);
#65=FACE_BOUND('',#95,.T.);
#66=FACE_BOUND('',#96,.T.);
#67=FACE_BOUND('',#97,.T.);
#68=FACE_BOUND('',#98,.T.);
#69=FACE_BOUND('',#99,.T.);
#70=FACE_BOUND('',#100,.T.);
#71=FACE_BOUND('',#101,.T.);
#72=FACE_BOUND('',#102,.T.);
#73=FACE_BOUND('',#103,.T.);
#74=FACE_BOUND('',#104,.T.);
#75=FACE_BOUND('',#105,.T.);
#76=FACE_BOUND('',#106,.T.);
#77=FACE_BOUND('',#107,.T.);
#78=FACE_BOUND('',#108,.T.);
#79=FACE_BOUND('',#109,.T.);
#80=FACE_BOUND('',#110,.T.);
#81=FACE_BOUND('',#111,.T.);
#82=FACE_BOUND('',#112,.T.);
#83=FACE_BOUND('',#113,.T.);
#84=FACE_BOUND('',#114,.T.);
#85=FACE_BOUND('',#115,.T.);
#86=FACE_BOUND('',#116,.T.);
#87=FACE_BOUND('',#117,.T.);
#88=FACE_BOUND('',#118,.T.);
#89=FACE_BOUND('',#119,.T.);
#90=FACE_BOUND('',#120,.T.);
#91=FACE_BOUND('',#121,.T.);
#92=FACE_BOUND('',#122,.T.);
#93=FACE_BOUND('',#123,.T.);
#94=EDGE_LOOP('',(#124));
#95=EDGE_LOOP('',(#125));
#96=EDGE_LOOP('',(#126));
#97=EDGE_LOOP('',(#127));
#98=EDGE_LOOP('',(#128));
#99=EDGE_LOOP('',(#129));
#100=EDGE_LOOP('',(#130));
#101=EDGE_LOOP('',(#131));
#102=EDGE_LOOP('',(#132));
#103=EDGE_LOOP('',(#133));
#104=EDGE_LOOP('',(#134));
#105=EDGE_LOOP('',(#135));
#106=EDGE_LOOP('',(#136));
#107=EDGE_LOOP('',(#137));
#108=EDGE_LOOP('',(#138));
#109=EDGE_LOOP('',(#139));
#110=EDGE_LOOP('',(#140));
#111=EDGE_LOOP('',(#141));
#112=EDGE_LOOP('',(#142));
#113=EDGE_LOOP('',(#143));
#114=EDGE_LOOP('',(#144));
#115=EDGE_LOOP('',(#145));
#116=EDGE_LOOP('',(#146));
#117=EDGE_LOOP('',(#147));
#118=EDGE_LOOP('',(#148));
#119=EDGE_LOOP('',(#149));
#120=EDGE_LOOP('',(#150));
#121=EDGE_LOOP('',(#151));
#122=EDGE_LOOP('',(#152));
#123=EDGE_LOOP('',(#153));
#124=ORIENTED_EDGE('',*,*,#169,.T.);
#125=ORIENTED_EDGE('',*,*,#170,.T.);
#126=ORIENTED_EDGE('',*,*,#171,.T.);
#127=ORIENTED_EDGE('',*,*,#172,.F.);
#128=ORIENTED_EDGE('',*,*,#173,.T.);
#129=ORIENTED_EDGE('',*,*,#174,.F.);
#130=ORIENTED_EDGE('',*,*,#175,.T.);
#131=ORIENTED_EDGE('',*,*,#174,.T.);
#132=ORIENTED_EDGE('',*,*,#175,.F.);
#133=ORIENTED_EDGE('',*,*,#176,.F.);
#134=ORIENTED_EDGE('',*,*,#170,.F.);
#135=ORIENTED_EDGE('',*,*,#176,.T.);
#136=ORIENTED_EDGE('',*,*,#177,.T.);
#137=ORIENTED_EDGE('',*,*,#178,.T.);
#138=ORIENTED_EDGE('',*,*,#179,.F.);
#139=ORIENTED_EDGE('',*,*,#178,.F.);
#140=ORIENTED_EDGE('',*,*,#179,.T.);
#141=ORIENTED_EDGE('',*,*,#180,.F.);
#142=ORIENTED_EDGE('',*,*,#180,.T.);
#143=ORIENTED_EDGE('',*,*,#181,.F.);
#144=ORIENTED_EDGE('',*,*,#181,.T.);
#145=ORIENTED_EDGE('',*,*,#182,.T.);
#146=ORIENTED_EDGE('',*,*,#172,.T.);
#147=ORIENTED_EDGE('',*,*,#182,.F.);
#148=ORIENTED_EDGE('',*,*,#183,.F.);
#149=ORIENTED_EDGE('',*,*,#171,.F.);
#150=ORIENTED_EDGE('',*,*,#183,.T.);
#151=ORIENTED_EDGE('',*,*,#173,.F.);
#152=ORIENTED_EDGE('',*,*,#177,.F.);
#153=ORIENTED_EDGE('',*,*,#169,.F.);
#154=VERTEX_POINT('',#294);
#155=VERTEX_POINT('',#296);
#156=VERTEX_POINT('',#299);
#157=VERTEX_POINT('',#301);
#158=VERTEX_POINT('',#304);
#159=VERTEX_POINT('',#306);
#160=VERTEX_POINT('',#309);
#161=VERTEX_POINT('',#312);
#162=VERTEX_POINT('',#316);
#163=VERTEX_POINT('',#318);
#164=VERTEX_POINT('',#321);
#165=VERTEX_POINT('',#324);
#166=VERTEX_POINT('',#327);
#167=VERTEX_POINT('',#330);
#168=VERTEX_POINT('',#334);
#169=EDGE_CURVE('',#154,#154,#184,.T.);
#170=EDGE_CURVE('',#155,#155,#185,.T.);
#171=EDGE_CURVE('',#156,#156,#186,.T.);
#172=EDGE_CURVE('',#157,#157,#187,.T.);
#173=EDGE_CURVE('',#158,#158,#188,.T.);
#174=EDGE_CURVE('',#159,#159,#189,.T.);
#175=EDGE_CURVE('',#160,#160,#190,.T.);
#176=EDGE_CURVE('',#161,#161,#191,.T.);
#177=EDGE_CURVE('',#162,#162,#192,.T.);
#178=EDGE_CURVE('',#163,#163,#193,.T.);
#179=EDGE_CURVE('',#164,#164,#194,.T.);
#180=EDGE_CURVE('',#165,#165,#195,.T.);
#181=EDGE_CURVE('',#166,#166,#196,.T.);
#182=EDGE_CURVE('',#167,#167,#197,.T.);
#183=EDGE_CURVE('',#168,#168,#198,.T.);
#184=CIRCLE('',#200,9.2);
#185=CIRCLE('',#201,9.);
#186=CIRCLE('',#203,9.55);
#187=CIRCLE('',#204,10.2);
#188=CIRCLE('',#206,9.545);
#189=CIRCLE('',#207,9.545);
#190=CIRCLE('',#209,8.5);
#191=CIRCLE('',#211,8.5);
#192=CIRCLE('',#214,10.2);
#193=CIRCLE('',#215,10.2);
#194=CIRCLE('',#217,9.53);
#195=CIRCLE('',#219,9.53);
#196=CIRCLE('',#221,11.);
#197=CIRCLE('',#223,11.);
#198=CIRCLE('',#226,9.55);
#199=AXIS2_PLACEMENT_3D('',#292,#230,#231);
#200=AXIS2_PLACEMENT_3D('',#293,#232,#233);
#201=AXIS2_PLACEMENT_3D('',#295,#234,#235);
#202=AXIS2_PLACEMENT_3D('',#297,#236,#237);
#203=AXIS2_PLACEMENT_3D('',#298,#238,#239);
#204=AXIS2_PLACEMENT_3D('',#300,#240,#241);
#205=AXIS2_PLACEMENT_3D('',#302,#242,#243);
#206=AXIS2_PLACEMENT_3D('',#303,#244,#245);
#207=AXIS2_PLACEMENT_3D('',#305,#246,#247);
#208=AXIS2_PLACEMENT_3D('',#307,#248,#249);
#209=AXIS2_PLACEMENT_3D('',#308,#250,#251);
#210=AXIS2_PLACEMENT_3D('',#310,#252,#253);
#211=AXIS2_PLACEMENT_3D('',#311,#254,#255);
#212=AXIS2_PLACEMENT_3D('',#313,#256,#257);
#213=AXIS2_PLACEMENT_3D('',#314,#258,#259);
#214=AXIS2_PLACEMENT_3D('',#315,#260,#261);
#215=AXIS2_PLACEMENT_3D('',#317,#262,#263);
#216=AXIS2_PLACEMENT_3D('',#319,#264,#265);
#217=AXIS2_PLACEMENT_3D('',#320,#266,#267);
#218=AXIS2_PLACEMENT_3D('',#322,#268,#269);
#219=AXIS2_PLACEMENT_3D('',#323,#270,#271);
#220=AXIS2_PLACEMENT_3D('',#325,#272,#273);
#221=AXIS2_PLACEMENT_3D('',#326,#274,#275);
#222=AXIS2_PLACEMENT_3D('',#328,#276,#277);
#223=AXIS2_PLACEMENT_3D('',#329,#278,#279);
#224=AXIS2_PLACEMENT_3D('',#331,#280,#281);
#225=AXIS2_PLACEMENT_3D('',#332,#282,#283);
#226=AXIS2_PLACEMENT_3D('',#333,#284,#285);
#227=AXIS2_PLACEMENT_3D('',#335,#286,#287);
#228=AXIS2_PLACEMENT_3D('',#336,#288,#289);
#229=AXIS2_PLACEMENT_3D('',#337,#290,#291);
#230=DIRECTION('',(0.,0.,1.));
#231=DIRECTION('',(1.,0.,0.));
#232=DIRECTION('',(1.51930029063929E-13,0.,1.));
#233=DIRECTION('',(1.,0.,-1.51976861047533E-13));
#234=DIRECTION('',(-1.52032735465275E-13,-3.08391739975533E-17,-1.));
#235=DIRECTION('',(-7.2280144832367E-16,-1.,0.));
#236=DIRECTION('',(1.51930029063929E-13,0.,1.));
#237=DIRECTION('',(0.,-1.,0.));
#238=DIRECTION('',(1.51267887105177E-13,0.,1.));
#239=DIRECTION('',(-1.,0.,1.51311482250124E-13));
#240=DIRECTION('',(1.51867380273974E-13,-9.79866708700874E-28,1.));
#241=DIRECTION('',(1.,-6.46269530265869E-15,-1.51873339612479E-13));
#242=DIRECTION('',(-1.51267887105177E-13,0.,-1.));
#243=DIRECTION('',(1.,-6.40549961915365E-15,-1.51936397632443E-13));
#244=DIRECTION('',(0.,0.,-1.));
#245=DIRECTION('',(1.,0.,0.));
#246=DIRECTION('',(-1.51839540559836E-13,0.,-1.));
#247=DIRECTION('',(1.,0.,-1.51935969189797E-13));
#248=DIRECTION('',(1.51883211845303E-13,1.5084551964916E-16,1.));
#249=DIRECTION('',(1.,-6.51997953909565E-15,-1.51935969189797E-13));
#250=DIRECTION('',(1.52077441210726E-13,-2.41878654602541E-16,1.));
#251=DIRECTION('',(-7.14297901872803E-16,-1.,-4.08170229641602E-16));
#252=DIRECTION('',(1.51839540559836E-13,0.,1.));
#253=DIRECTION('',(1.,-7.2476746826311E-15,-1.5184034585225E-13));
#254=DIRECTION('',(-1.51945485688825E-13,6.48984303995535E-16,-1.));
#255=DIRECTION('',(-7.65319180578003E-16,-1.,-8.16340459283203E-16));
#256=DIRECTION('',(-1.51821265171357E-13,-1.8601861427672E-16,-1.));
#257=DIRECTION('',(-8.67361737988403E-16,-1.,0.));
#258=DIRECTION('',(1.52655665885958E-13,0.,1.));
#259=DIRECTION('',(-7.33623760539525E-16,-1.,-3.23379289522698E-16));
#260=DIRECTION('',(-1.5178830414797E-13,-2.16840434497101E-16,-1.));
#261=DIRECTION('',(1.,0.,-1.51703268683462E-13));
#262=DIRECTION('',(1.518292471494E-13,-2.61841324399727E-16,1.));
#263=DIRECTION('',(-1.,7.1642378848552E-15,1.51703268683462E-13));
#264=DIRECTION('',(1.51882423450588E-13,2.47817639424167E-16,1.));
#265=DIRECTION('',(-1.,7.2280144832367E-15,1.52043410541497E-13));
#266=DIRECTION('',(-1.52175693527206E-13,1.61802352895202E-16,-1.));
#267=DIRECTION('',(5.46082941021031E-16,1.,0.));
#268=DIRECTION('',(-1.51930029063929E-13,0.,-1.));
#269=DIRECTION('',(-1.,7.28930804605454E-15,1.51930551473001E-13));
#270=DIRECTION('',(-1.52175693527206E-13,1.61802352895214E-16,-1.));
#271=DIRECTION('',(5.46082941021031E-16,1.,0.));
#272=DIRECTION('',(1.5178830414797E-13,-7.59737591451807E-17,1.));
#273=DIRECTION('',(0.,1.,0.));
#274=DIRECTION('',(3.2708590792829E-16,5.58436133671995E-15,-1.));
#275=DIRECTION('',(1.,-4.73106402539129E-16,3.1540426835942E-16));
#276=DIRECTION('',(1.51844625631056E-13,0.,1.));
#277=DIRECTION('',(0.,1.,0.));
#278=DIRECTION('',(-1.63542953964141E-16,-5.46296217722604E-15,1.));
#279=DIRECTION('',(1.,9.85638338623186E-17,1.5770213417971E-16));
#280=DIRECTION('',(-2.9467255047219E-16,-5.41233724504764E-15,1.));
#281=DIRECTION('',(1.,0.,3.1540426835942E-16));
#282=DIRECTION('',(-1.51844625631056E-13,0.,-1.));
#283=DIRECTION('',(1.,-7.20951076615961E-15,-1.51843815299202E-13));
#284=DIRECTION('',(0.,0.,-1.));
#285=DIRECTION('',(1.,0.,0.));
#286=DIRECTION('',(0.,0.,1.));
#287=DIRECTION('',(1.,0.,0.));
#288=DIRECTION('',(0.,0.,1.));
#289=DIRECTION('',(1.,0.,0.));
#290=DIRECTION('',(-1.5178830414797E-13,-2.16840434497101E-16,-1.));
#291=DIRECTION('',(-1.,0.,1.51851903799785E-13));
#292=CARTESIAN_POINT('',(0.,0.,0.));
#293=CARTESIAN_POINT('',(-2.11103574702405,-1.72095168989071,29.0000000000019));
#294=CARTESIAN_POINT('',(7.08896425297596,-1.72095168989071,29.0000000000005));
#295=CARTESIAN_POINT('',(-2.11103574702426,-1.72095168989071,29.0000000000019));
#296=CARTESIAN_POINT('',(-2.11103574702427,-10.7209516898907,29.0000000000019));
#297=CARTESIAN_POINT('',(-12.8210358088831,8.98904829267581,29.0000000000035));
#298=CARTESIAN_POINT('',(-2.11103574702494,-1.72095168989065,10.6500000000018));
#299=CARTESIAN_POINT('',(-11.6610357470249,-1.72095168989065,10.6500000000033));
#300=CARTESIAN_POINT('',(-2.11103574702505,-1.72095168989065,10.0000000000018));
#301=CARTESIAN_POINT('',(8.08896425297496,-1.72095168989072,10.0000000000003));
#302=CARTESIAN_POINT('',(-2.11103574702494,-1.72095168989065,10.6250000000018));
#303=CARTESIAN_POINT('',(-2.11103574702369,-1.72095168989065,18.8939999999998));
#304=CARTESIAN_POINT('',(7.43396425297631,-1.72095168989065,18.8939999999998));
#305=CARTESIAN_POINT('',(-2.11103574702329,-1.72095168989065,21.5000000000018));
#306=CARTESIAN_POINT('',(7.43396425297671,-1.72095168989065,21.5000000000004));
#307=CARTESIAN_POINT('',(-2.11103574702504,-1.72095168989065,10.0000000000018));
#308=CARTESIAN_POINT('',(-2.11103574702518,-1.7209516898907,21.5000000000018));
#309=CARTESIAN_POINT('',(-2.11103574702518,-10.2209516898907,21.5000000000018));
#310=CARTESIAN_POINT('',(-12.1647844789534,-11.7747004983929,21.5000000000034));
#311=CARTESIAN_POINT('',(-2.11103574702434,-1.7209516898907,28.5000000000019));
#312=CARTESIAN_POINT('',(-2.11103574702435,-10.2209516898907,28.5000000000018));
#313=CARTESIAN_POINT('',(-2.11103574702426,-1.7209516898907,27.5000000000019));
#314=CARTESIAN_POINT('',(-2.11103574702434,-1.72095168989071,28.5000000000019));
#315=CARTESIAN_POINT('',(-2.1110357470242,-1.72095168989071,28.0000000000019));
#316=CARTESIAN_POINT('',(8.0889642529758,-1.72095168989071,28.0000000000003));
#317=CARTESIAN_POINT('',(-2.1110357470248,-1.72095168989071,24.0000000000019));
#318=CARTESIAN_POINT('',(-12.3110357470248,-1.72095168989064,24.0000000000034));
#319=CARTESIAN_POINT('',(-2.1110357470248,-1.72095168989071,24.0000000000019));
#320=CARTESIAN_POINT('',(-2.1110357470248,-1.72095168989071,24.0000000000019));
#321=CARTESIAN_POINT('',(-2.1110357470248,7.80904831010929,24.0000000000019));
#322=CARTESIAN_POINT('',(8.59896431211384,-12.4309518283218,24.));
#323=CARTESIAN_POINT('',(-2.11103574702503,-1.72095168989071,22.5000000000018));
#324=CARTESIAN_POINT('',(-2.11103574702503,7.80904831010929,22.5000000000018));
#325=CARTESIAN_POINT('',(-2.11103574702503,-1.72095168989071,22.5000000000018));
#326=CARTESIAN_POINT('',(-2.11103574702504,-1.72095168989071,22.5));
#327=CARTESIAN_POINT('',(8.88896425297496,-1.72095168989072,22.5));
#328=CARTESIAN_POINT('',(9.43896383978406,-13.2709504246696,22.5));
#329=CARTESIAN_POINT('',(-2.11103574702503,-1.72095168989064,9.99999999999982));
#330=CARTESIAN_POINT('',(8.88896425297497,-1.72095168989064,9.99999999999982));
#331=CARTESIAN_POINT('',(-2.11103574702503,-1.72095168989064,9.99999999999981));
#332=CARTESIAN_POINT('',(-13.6610362678768,9.82904968299147,10.0000000000036));
#333=CARTESIAN_POINT('',(-2.11103574702503,-1.72095168989065,18.8939999999998));
#334=CARTESIAN_POINT('',(7.43896425297497,-1.72095168989065,18.8939999999998));
#335=CARTESIAN_POINT('',(-2.11103574702503,-1.72095168989065,9.99999999999982));
#336=CARTESIAN_POINT('',(-2.11103574702503,-1.72095168989065,18.8939999999998));
#337=CARTESIAN_POINT('',(-2.11103574702405,-1.72095168989071,29.0000000000019));
#338=MECHANICAL_DESIGN_GEOMETRIC_PRESENTATION_REPRESENTATION('',(#24),#339);
#339=(
GEOMETRIC_REPRESENTATION_CONTEXT(3)
GLOBAL_UNCERTAINTY_ASSIGNED_CONTEXT((#340))
GLOBAL_UNIT_ASSIGNED_CONTEXT((#346,#342,#341))
REPRESENTATION_CONTEXT('n 16 013 0010nxc001-03',
'TOP_LEVEL_ASSEMBLY_PART')
);
#340=UNCERTAINTY_MEASURE_WITH_UNIT(LENGTH_MEASURE(2.E-5),#346,
'DISTANCE_ACCURACY_VALUE','Maximum Tolerance applied to model');
#341=(
NAMED_UNIT(*)
SI_UNIT($,.STERADIAN.)
SOLID_ANGLE_UNIT()
);
#342=(
CONVERSION_BASED_UNIT('DEGREE',#344)
NAMED_UNIT(#343)
PLANE_ANGLE_UNIT()
);
#343=DIMENSIONAL_EXPONENTS(0.,0.,0.,0.,0.,0.,0.);
#344=PLANE_ANGLE_MEASURE_WITH_UNIT(PLANE_ANGLE_MEASURE(0.0174532925),#345);
#345=(
NAMED_UNIT(*)
PLANE_ANGLE_UNIT()
SI_UNIT($,.RADIAN.)
);
#346=(
LENGTH_UNIT()
NAMED_UNIT(*)
SI_UNIT(.MILLI.,.METRE.)
);
ENDSEC;
END-ISO-10303-21;
