ISO-10303-21;
HEADER;
/* Generated by software containing ST-Developer
 * from STEP Tools, Inc. (www.steptools.com) 
 */
/* OPTION: using custom schema-name function */

FILE_DESCRIPTION(
/* description */ (''),
/* implementation_level */ '2;1');

FILE_NAME(
/* name */ 'n 16 016 0010nxc001-01.stp',
/* time_stamp */ '2019-07-25T10:21:39+02:00',
/* author */ (''),
/* organization */ (''),
/* preprocessor_version */ 'ST-DEVELOPER v16.7',
/* originating_system */ 'SIEMENS PLM Software NX 12.0',
/* authorisation */ '');

FILE_SCHEMA (('AUTOMOTIVE_DESIGN { 1 0 10303 214 3 1 1 1 }'));
ENDSEC;

DATA;
#10=SHAPE_REPRESENTATION_RELATIONSHIP('None',
'relationship between n 16 016 0010nxc001-01-None and n 16 016 0010nxc
001-01-None',#22,#11);
#11=ADVANCED_BREP_SHAPE_REPRESENTATION('n 16 016 0010nxc001-01-None',(#32),
#339);
#12=SHAPE_DEFINITION_REPRESENTATION(#13,#22);
#13=PRODUCT_DEFINITION_SHAPE('','',#14);
#14=PRODUCT_DEFINITION(' ','',#16,#15);
#15=PRODUCT_DEFINITION_CONTEXT('part definition',#21,'design');
#16=PRODUCT_DEFINITION_FORMATION_WITH_SPECIFIED_SOURCE(' ',' ',#18,
 .NOT_KNOWN.);
#17=PRODUCT_RELATED_PRODUCT_CATEGORY('part','',(#18));
#18=PRODUCT('n 16 016 0010nxc001-01','n 16 016 0010nxc001-01',' ',(#19));
#19=PRODUCT_CONTEXT(' ',#21,'mechanical');
#20=APPLICATION_PROTOCOL_DEFINITION('international standard',
'automotive_design',2010,#21);
#21=APPLICATION_CONTEXT(
'core data for automotive mechanical design processes');
#22=SHAPE_REPRESENTATION('n 16 016 0010nxc001-01-None',(#199),#339);
#23=PRESENTATION_LAYER_ASSIGNMENT('1','Layer 1',(#32));
#24=STYLED_ITEM('',(#25),#32);
#25=PRESENTATION_STYLE_ASSIGNMENT((#26));
#26=SURFACE_STYLE_USAGE(.BOTH.,#27);
#27=SURFACE_SIDE_STYLE('',(#28));
#28=SURFACE_STYLE_FILL_AREA(#29);
#29=FILL_AREA_STYLE('',(#30));
#30=FILL_AREA_STYLE_COLOUR('',#31);
#31=COLOUR_RGB('Medium Gray',0.490196078431373,0.490196078431373,0.490196078431373);
#32=MANIFOLD_SOLID_BREP('R2',#33);
#33=CLOSED_SHELL('',(#45,#46,#47,#48,#49,#50,#51,#52,#53,#54,#55,#56,#57,
#58,#59));
#34=PLANE('',#213);
#35=PLANE('',#215);
#36=PLANE('',#219);
#37=PLANE('',#223);
#38=PLANE('',#226);
#39=CYLINDRICAL_SURFACE('',#211,10.6);
#40=CYLINDRICAL_SURFACE('',#214,9.25000000000001);
#41=CYLINDRICAL_SURFACE('',#217,11.2500000000001);
#42=CYLINDRICAL_SURFACE('',#221,10.58);
#43=CYLINDRICAL_SURFACE('',#225,11.9999999999999);
#44=CYLINDRICAL_SURFACE('',#229,10.605);
#45=ADVANCED_FACE('F13',(#64,#65),#60,.F.);
#46=ADVANCED_FACE('F12',(#66,#67),#61,.T.);
#47=ADVANCED_FACE('F11',(#68,#69),#62,.F.);
#48=ADVANCED_FACE('F8',(#70,#71),#39,.F.);
#49=ADVANCED_FACE('F9',(#72,#73),#34,.F.);
#50=ADVANCED_FACE('F7',(#74,#75),#40,.F.);
#51=ADVANCED_FACE('F1',(#76,#77),#35,.T.);
#52=ADVANCED_FACE('F4',(#78,#79),#41,.T.);
#53=ADVANCED_FACE('F6',(#80,#81),#36,.T.);
#54=ADVANCED_FACE('F5',(#82,#83),#42,.T.);
#55=ADVANCED_FACE('F2',(#84,#85),#37,.T.);
#56=ADVANCED_FACE('F3',(#86,#87),#43,.T.);
#57=ADVANCED_FACE('F10',(#88,#89),#38,.T.);
#58=ADVANCED_FACE('',(#90,#91),#63,.F.);
#59=ADVANCED_FACE('',(#92,#93),#44,.F.);
#60=CONICAL_SURFACE('',#202,10.5999999999997,45.0000000000074);
#61=CONICAL_SURFACE('',#205,10.2499999999999,44.9999999999945);
#62=CONICAL_SURFACE('',#208,9.25000000000001,45.0000000000002);
#63=CONICAL_SURFACE('',#228,10.605,59.);
#64=FACE_BOUND('',#94,.T.);
#65=FACE_BOUND('',#95,.T.);
#66=FACE_BOUND('',#96,.T.);
#67=FACE_BOUND('',#97,.T.);
#68=FACE_BOUND('',#98,.T.);
#69=FACE_BOUND('',#99,.T.);
#70=FACE_BOUND('',#100,.T.);
#71=FACE_BOUND('',#101,.T.);
#72=FACE_BOUND('',#102,.T.);
#73=FACE_BOUND('',#103,.T.);
#74=FACE_BOUND('',#104,.T.);
#75=FACE_BOUND('',#105,.T.);
#76=FACE_BOUND('',#106,.T.);
#77=FACE_BOUND('',#107,.T.);
#78=FACE_BOUND('',#108,.T.);
#79=FACE_BOUND('',#109,.T.);
#80=FACE_BOUND('',#110,.T.);
#81=FACE_BOUND('',#111,.T.);
#82=FACE_BOUND('',#112,.T.);
#83=FACE_BOUND('',#113,.T.);
#84=FACE_BOUND('',#114,.T.);
#85=FACE_BOUND('',#115,.T.);
#86=FACE_BOUND('',#116,.T.);
#87=FACE_BOUND('',#117,.T.);
#88=FACE_BOUND('',#118,.T.);
#89=FACE_BOUND('',#119,.T.);
#90=FACE_BOUND('',#120,.T.);
#91=FACE_BOUND('',#121,.T.);
#92=FACE_BOUND('',#122,.T.);
#93=FACE_BOUND('',#123,.T.);
#94=EDGE_LOOP('',(#124));
#95=EDGE_LOOP('',(#125));
#96=EDGE_LOOP('',(#126));
#97=EDGE_LOOP('',(#127));
#98=EDGE_LOOP('',(#128));
#99=EDGE_LOOP('',(#129));
#100=EDGE_LOOP('',(#130));
#101=EDGE_LOOP('',(#131));
#102=EDGE_LOOP('',(#132));
#103=EDGE_LOOP('',(#133));
#104=EDGE_LOOP('',(#134));
#105=EDGE_LOOP('',(#135));
#106=EDGE_LOOP('',(#136));
#107=EDGE_LOOP('',(#137));
#108=EDGE_LOOP('',(#138));
#109=EDGE_LOOP('',(#139));
#110=EDGE_LOOP('',(#140));
#111=EDGE_LOOP('',(#141));
#112=EDGE_LOOP('',(#142));
#113=EDGE_LOOP('',(#143));
#114=EDGE_LOOP('',(#144));
#115=EDGE_LOOP('',(#145));
#116=EDGE_LOOP('',(#146));
#117=EDGE_LOOP('',(#147));
#118=EDGE_LOOP('',(#148));
#119=EDGE_LOOP('',(#149));
#120=EDGE_LOOP('',(#150));
#121=EDGE_LOOP('',(#151));
#122=EDGE_LOOP('',(#152));
#123=EDGE_LOOP('',(#153));
#124=ORIENTED_EDGE('',*,*,#169,.F.);
#125=ORIENTED_EDGE('',*,*,#170,.F.);
#126=ORIENTED_EDGE('',*,*,#171,.F.);
#127=ORIENTED_EDGE('',*,*,#172,.F.);
#128=ORIENTED_EDGE('',*,*,#173,.T.);
#129=ORIENTED_EDGE('',*,*,#174,.F.);
#130=ORIENTED_EDGE('',*,*,#175,.T.);
#131=ORIENTED_EDGE('',*,*,#176,.F.);
#132=ORIENTED_EDGE('',*,*,#176,.T.);
#133=ORIENTED_EDGE('',*,*,#177,.T.);
#134=ORIENTED_EDGE('',*,*,#177,.F.);
#135=ORIENTED_EDGE('',*,*,#173,.F.);
#136=ORIENTED_EDGE('',*,*,#171,.T.);
#137=ORIENTED_EDGE('',*,*,#174,.T.);
#138=ORIENTED_EDGE('',*,*,#178,.T.);
#139=ORIENTED_EDGE('',*,*,#172,.T.);
#140=ORIENTED_EDGE('',*,*,#178,.F.);
#141=ORIENTED_EDGE('',*,*,#179,.F.);
#142=ORIENTED_EDGE('',*,*,#180,.F.);
#143=ORIENTED_EDGE('',*,*,#179,.T.);
#144=ORIENTED_EDGE('',*,*,#181,.F.);
#145=ORIENTED_EDGE('',*,*,#180,.T.);
#146=ORIENTED_EDGE('',*,*,#182,.T.);
#147=ORIENTED_EDGE('',*,*,#181,.T.);
#148=ORIENTED_EDGE('',*,*,#182,.F.);
#149=ORIENTED_EDGE('',*,*,#170,.T.);
#150=ORIENTED_EDGE('',*,*,#183,.T.);
#151=ORIENTED_EDGE('',*,*,#175,.F.);
#152=ORIENTED_EDGE('',*,*,#169,.T.);
#153=ORIENTED_EDGE('',*,*,#183,.F.);
#154=VERTEX_POINT('',#294);
#155=VERTEX_POINT('',#296);
#156=VERTEX_POINT('',#299);
#157=VERTEX_POINT('',#301);
#158=VERTEX_POINT('',#304);
#159=VERTEX_POINT('',#306);
#160=VERTEX_POINT('',#309);
#161=VERTEX_POINT('',#311);
#162=VERTEX_POINT('',#314);
#163=VERTEX_POINT('',#319);
#164=VERTEX_POINT('',#322);
#165=VERTEX_POINT('',#325);
#166=VERTEX_POINT('',#328);
#167=VERTEX_POINT('',#331);
#168=VERTEX_POINT('',#335);
#169=EDGE_CURVE('',#154,#154,#184,.T.);
#170=EDGE_CURVE('E26',#155,#155,#185,.T.);
#171=EDGE_CURVE('E20',#156,#156,#186,.T.);
#172=EDGE_CURVE('E22',#157,#157,#187,.T.);
#173=EDGE_CURVE('E16',#158,#158,#188,.T.);
#174=EDGE_CURVE('E18',#159,#159,#189,.T.);
#175=EDGE_CURVE('',#160,#160,#190,.T.);
#176=EDGE_CURVE('E15',#161,#161,#191,.T.);
#177=EDGE_CURVE('E11',#162,#162,#192,.T.);
#178=EDGE_CURVE('E7',#163,#163,#193,.T.);
#179=EDGE_CURVE('E10',#164,#164,#194,.T.);
#180=EDGE_CURVE('E4',#165,#165,#195,.T.);
#181=EDGE_CURVE('E3',#166,#166,#196,.T.);
#182=EDGE_CURVE('E5',#167,#167,#197,.T.);
#183=EDGE_CURVE('',#168,#168,#198,.T.);
#184=CIRCLE('',#200,10.605);
#185=CIRCLE('',#201,11.2500000000002);
#186=CIRCLE('',#203,10.2500000000001);
#187=CIRCLE('',#204,11.2500000000001);
#188=CIRCLE('',#206,9.24999999999997);
#189=CIRCLE('',#207,9.75000000000002);
#190=CIRCLE('',#209,10.6);
#191=CIRCLE('',#210,10.6);
#192=CIRCLE('',#212,9.24999999999998);
#193=CIRCLE('',#216,11.2499999999999);
#194=CIRCLE('',#218,10.5799999999999);
#195=CIRCLE('',#220,10.58);
#196=CIRCLE('',#222,12.);
#197=CIRCLE('',#224,12.0000000000001);
#198=CIRCLE('',#227,10.605);
#199=AXIS2_PLACEMENT_3D('',#292,#230,#231);
#200=AXIS2_PLACEMENT_3D('',#293,#232,#233);
#201=AXIS2_PLACEMENT_3D('',#295,#234,#235);
#202=AXIS2_PLACEMENT_3D('',#297,#236,#237);
#203=AXIS2_PLACEMENT_3D('',#298,#238,#239);
#204=AXIS2_PLACEMENT_3D('',#300,#240,#241);
#205=AXIS2_PLACEMENT_3D('',#302,#242,#243);
#206=AXIS2_PLACEMENT_3D('',#303,#244,#245);
#207=AXIS2_PLACEMENT_3D('',#305,#246,#247);
#208=AXIS2_PLACEMENT_3D('',#307,#248,#249);
#209=AXIS2_PLACEMENT_3D('',#308,#250,#251);
#210=AXIS2_PLACEMENT_3D('',#310,#252,#253);
#211=AXIS2_PLACEMENT_3D('',#312,#254,#255);
#212=AXIS2_PLACEMENT_3D('',#313,#256,#257);
#213=AXIS2_PLACEMENT_3D('',#315,#258,#259);
#214=AXIS2_PLACEMENT_3D('',#316,#260,#261);
#215=AXIS2_PLACEMENT_3D('',#317,#262,#263);
#216=AXIS2_PLACEMENT_3D('',#318,#264,#265);
#217=AXIS2_PLACEMENT_3D('',#320,#266,#267);
#218=AXIS2_PLACEMENT_3D('',#321,#268,#269);
#219=AXIS2_PLACEMENT_3D('',#323,#270,#271);
#220=AXIS2_PLACEMENT_3D('',#324,#272,#273);
#221=AXIS2_PLACEMENT_3D('',#326,#274,#275);
#222=AXIS2_PLACEMENT_3D('',#327,#276,#277);
#223=AXIS2_PLACEMENT_3D('',#329,#278,#279);
#224=AXIS2_PLACEMENT_3D('',#330,#280,#281);
#225=AXIS2_PLACEMENT_3D('',#332,#282,#283);
#226=AXIS2_PLACEMENT_3D('',#333,#284,#285);
#227=AXIS2_PLACEMENT_3D('',#334,#286,#287);
#228=AXIS2_PLACEMENT_3D('',#336,#288,#289);
#229=AXIS2_PLACEMENT_3D('',#337,#290,#291);
#230=DIRECTION('',(0.,0.,1.));
#231=DIRECTION('',(1.,0.,0.));
#232=DIRECTION('',(-1.25903829640078E-13,6.89970777088153E-28,-1.));
#233=DIRECTION('',(-1.,0.,1.25953519707887E-13));
#234=DIRECTION('',(1.24488896557504E-13,0.,1.));
#235=DIRECTION('',(1.,0.,-1.24437497343401E-13));
#236=DIRECTION('',(-1.25903829640078E-13,6.89970777088153E-28,-1.));
#237=DIRECTION('',(-1.,0.,1.25943396156602E-13));
#238=DIRECTION('',(1.29751674625907E-13,-3.66400938636201E-27,1.));
#239=DIRECTION('',(1.,0.,-1.29638847082754E-13));
#240=DIRECTION('',(-1.1862938614976E-13,0.,-1.));
#241=DIRECTION('',(-1.,0.,1.18732184577967E-13));
#242=DIRECTION('',(-1.9496599456832E-13,2.20984911532268E-27,-1.));
#243=DIRECTION('',(-1.,0.,1.94920930560773E-13));
#244=DIRECTION('',(-1.56132443342627E-13,1.81286417309304E-14,-1.));
#245=DIRECTION('',(-1.,0.,1.56031344001374E-13));
#246=DIRECTION('',(-1.48125651376342E-13,1.69617406539944E-14,-1.));
#247=DIRECTION('',(-1.,0.,1.48029736616687E-13));
#248=DIRECTION('',(1.24732714792447E-13,-4.15859254914649E-28,1.));
#249=DIRECTION('',(1.,0.,-1.24724770186555E-13));
#250=DIRECTION('',(0.,0.,-1.));
#251=DIRECTION('',(-1.,0.,0.));
#252=DIRECTION('',(-1.25903829640078E-13,1.03495616563226E-27,-1.));
#253=DIRECTION('',(-1.,0.,1.26012931745485E-13));
#254=DIRECTION('',(1.2579472753467E-13,-6.89372882134014E-28,1.));
#255=DIRECTION('',(1.,0.,-1.25849278587374E-13));
#256=DIRECTION('',(1.55915893490555E-13,1.82536668463161E-14,1.));
#257=DIRECTION('',(1.,0.,-1.56031344001374E-13));
#258=DIRECTION('',(1.34819030265998E-13,0.,1.));
#259=DIRECTION('',(1.,0.,-1.34819239105965E-13));
#260=DIRECTION('',(-1.24732714792447E-13,-2.5005023077152E-16,-1.));
#261=DIRECTION('',(-1.,0.,1.2490009027033E-13));
#262=DIRECTION('',(1.26882639348672E-13,0.,1.));
#263=DIRECTION('',(0.,-1.,0.));
#264=DIRECTION('',(1.18218192436939E-13,0.,1.));
#265=DIRECTION('',(1.,0.,-1.18115394008733E-13));
#266=DIRECTION('',(1.77635683940026E-13,-9.17223793298176E-28,1.));
#267=DIRECTION('',(1.,0.,-1.77635683940024E-13));
#268=DIRECTION('',(-1.36505208026398E-13,1.56310937028806E-14,-1.));
#269=DIRECTION('',(-1.,0.,1.36416817770578E-13));
#270=DIRECTION('',(-1.26882639348677E-13,0.,-1.));
#271=DIRECTION('',(-1.,0.,1.26881144479896E-13));
#272=DIRECTION('',(-1.36315880414717E-13,1.57404020504497E-14,-1.));
#273=DIRECTION('',(-1.,0.,1.36416817770576E-13));
#274=DIRECTION('',(1.63579056497657E-13,3.1480804100902E-14,1.));
#275=DIRECTION('',(1.,0.,-1.63634596316149E-13));
#276=DIRECTION('',(0.,0.,-1.));
#277=DIRECTION('',(-1.,0.,0.));
#278=DIRECTION('',(1.58740976858602E-13,0.,1.));
#279=DIRECTION('',(0.,1.,0.));
#280=DIRECTION('',(2.79483226685154E-15,-4.84079148481965E-15,1.));
#281=DIRECTION('',(0.,-1.,-4.77048955893618E-15));
#282=DIRECTION('',(-2.84301903007311E-15,-4.75732956266767E-15,1.));
#283=DIRECTION('',(0.,-1.,-4.77048955893624E-15));
#284=DIRECTION('',(-1.70649992034897E-13,0.,-1.));
#285=DIRECTION('',(1.,-8.05432109896032E-15,-1.70649952502266E-13));
#286=DIRECTION('',(0.,0.,-1.));
#287=DIRECTION('',(1.,0.,0.));
#288=DIRECTION('',(0.,0.,-1.));
#289=DIRECTION('',(-1.,0.,-4.14290894508094E-18));
#290=DIRECTION('',(0.,0.,1.));
#291=DIRECTION('',(1.,0.,0.));
#292=CARTESIAN_POINT('',(0.,0.,0.));
#293=CARTESIAN_POINT('',(-0.722660009413957,-3.04770355204933,10.645000000001));
#294=CARTESIAN_POINT('',(-11.327660009414,-3.04770355204933,10.6450000000023));
#295=CARTESIAN_POINT('',(-0.722660009414327,-3.047703552049,10.0000000000013));
#296=CARTESIAN_POINT('',(10.5273399905859,-3.047703552049,9.9999999999999));
#297=CARTESIAN_POINT('',(-0.722660009413957,-3.04770355204933,10.6500000000013));
#298=CARTESIAN_POINT('',(-0.722660009413495,-3.04770355204919,28.5000000000017));
#299=CARTESIAN_POINT('',(9.52733999058659,-3.04770355204919,28.5000000000003));
#300=CARTESIAN_POINT('',(-0.722660009413618,-3.0477035520489,27.5000000000017));
#301=CARTESIAN_POINT('',(-11.9726600094137,-3.0477035520489,27.500000000003));
#302=CARTESIAN_POINT('',(-0.722660009413679,-3.04770355204925,28.500000000002));
#303=CARTESIAN_POINT('',(-0.722660009413682,-3.04770355204911,28.0000000000017));
#304=CARTESIAN_POINT('',(-9.97266000941365,-3.04770355204911,28.0000000000031));
#305=CARTESIAN_POINT('',(-0.722660009413602,-3.04770355204891,28.5000000000017));
#306=CARTESIAN_POINT('',(-10.4726600094136,-3.04770355204891,28.5000000000031));
#307=CARTESIAN_POINT('',(-0.722660009413694,-3.04770355204899,28.000000000002));
#308=CARTESIAN_POINT('',(-0.722660009414327,-3.047703552049,17.5030043030964));
#309=CARTESIAN_POINT('',(-11.3226600094144,-3.047703552049,17.5030043030964));
#310=CARTESIAN_POINT('',(-0.722660009412472,-3.04770355204891,22.5000000000013));
#311=CARTESIAN_POINT('',(-11.3226600094125,-3.04770355204891,22.5000000000027));
#312=CARTESIAN_POINT('',(-0.722660009414311,-3.04770355204894,10.0000000000013));
#313=CARTESIAN_POINT('',(-0.722660009414512,-3.04770355204923,22.5000000000013));
#314=CARTESIAN_POINT('',(8.52733999058547,-3.04770355204923,22.4999999999999));
#315=CARTESIAN_POINT('',(-11.852660187286,-14.17770374934,22.500000000003));
#316=CARTESIAN_POINT('',(-0.722660009413581,-3.04770355204906,28.500000000002));
#317=CARTESIAN_POINT('',(-12.535158981336,8.7647959739452,28.500000000003));
#318=CARTESIAN_POINT('',(-0.722660009414398,-3.0477035520489,25.0000000000017));
#319=CARTESIAN_POINT('',(10.5273399905855,-3.0477035520489,25.0000000000003));
#320=CARTESIAN_POINT('',(-0.722660009413718,-3.04770355204896,25.000000000002));
#321=CARTESIAN_POINT('',(-0.722660009414122,-3.04770355204877,25.0000000000013));
#322=CARTESIAN_POINT('',(-11.3026600094141,-3.04770355204877,25.0000000000028));
#323=CARTESIAN_POINT('',(11.089839535998,-14.860202543389,25.));
#324=CARTESIAN_POINT('',(-0.722660009414347,-3.04770355204922,23.5000000000013));
#325=CARTESIAN_POINT('',(-11.3026600094144,-3.04770355204922,23.5000000000028));
#326=CARTESIAN_POINT('',(-0.722660009414333,-3.04770355204903,23.5000000000013));
#327=CARTESIAN_POINT('',(-0.722660009414131,-3.047703552049,23.5));
#328=CARTESIAN_POINT('',(-12.7226600094142,-3.047703552049,23.5));
#329=CARTESIAN_POINT('',(11.877339391503,-15.647702398895,23.5));
#330=CARTESIAN_POINT('',(-0.722660009414185,-3.0477035520489,9.99999999999983));
#331=CARTESIAN_POINT('',(-0.722660009414185,-15.047703552049,9.99999999999977));
#332=CARTESIAN_POINT('',(-0.722660009414256,-3.04770355204895,9.99999999999987));
#333=CARTESIAN_POINT('',(-13.322658836842,9.5522958294506,10.000000000004));
#334=CARTESIAN_POINT('',(-0.722660009414327,-3.047703552049,17.5000000000013));
#335=CARTESIAN_POINT('',(9.88233999058567,-3.047703552049,17.5000000000013));
#336=CARTESIAN_POINT('',(-0.722660009414327,-3.047703552049,17.5000000000013));
#337=CARTESIAN_POINT('',(-0.722660009414327,-3.047703552049,10.0000000000013));
#338=MECHANICAL_DESIGN_GEOMETRIC_PRESENTATION_REPRESENTATION('',(#24),#339);
#339=(
GEOMETRIC_REPRESENTATION_CONTEXT(3)
GLOBAL_UNCERTAINTY_ASSIGNED_CONTEXT((#340))
GLOBAL_UNIT_ASSIGNED_CONTEXT((#346,#342,#341))
REPRESENTATION_CONTEXT('n 16 016 0010nxc001-01',
'TOP_LEVEL_ASSEMBLY_PART')
);
#340=UNCERTAINTY_MEASURE_WITH_UNIT(LENGTH_MEASURE(2.E-5),#346,
'DISTANCE_ACCURACY_VALUE','Maximum Tolerance applied to model');
#341=(
NAMED_UNIT(*)
SI_UNIT($,.STERADIAN.)
SOLID_ANGLE_UNIT()
);
#342=(
CONVERSION_BASED_UNIT('DEGREE',#344)
NAMED_UNIT(#343)
PLANE_ANGLE_UNIT()
);
#343=DIMENSIONAL_EXPONENTS(0.,0.,0.,0.,0.,0.,0.);
#344=PLANE_ANGLE_MEASURE_WITH_UNIT(PLANE_ANGLE_MEASURE(0.0174532925),#345);
#345=(
NAMED_UNIT(*)
PLANE_ANGLE_UNIT()
SI_UNIT($,.RADIAN.)
);
#346=(
LENGTH_UNIT()
NAMED_UNIT(*)
SI_UNIT(.MILLI.,.METRE.)
);
ENDSEC;
END-ISO-10303-21;
