ISO-10303-21;
HEADER;
/* Generated by software containing ST-Developer
 * from STEP Tools, Inc. (www.steptools.com) 
 */
/* OPTION: using custom schema-name function */

FILE_DESCRIPTION(
/* description */ (''),
/* implementation_level */ '2;1');

FILE_NAME(
/* name */ 'n 16 021 0010nxc001-01.stp',
/* time_stamp */ '2019-07-25T10:18:15+02:00',
/* author */ (''),
/* organization */ (''),
/* preprocessor_version */ 'ST-DEVELOPER v16.7',
/* originating_system */ 'SIEMENS PLM Software NX 12.0',
/* authorisation */ '');

FILE_SCHEMA (('AUTOMOTIVE_DESIGN { 1 0 10303 214 3 1 1 1 }'));
ENDSEC;

DATA;
#10=SHAPE_REPRESENTATION_RELATIONSHIP('None',
'relationship between n 16 021 0010nxc001-01-None and n 16 021 0010nxc
001-01-None',#22,#11);
#11=ADVANCED_BREP_SHAPE_REPRESENTATION('n 16 021 0010nxc001-01-None',(#32),
#379);
#12=SHAPE_DEFINITION_REPRESENTATION(#13,#22);
#13=PRODUCT_DEFINITION_SHAPE('','',#14);
#14=PRODUCT_DEFINITION(' ','',#16,#15);
#15=PRODUCT_DEFINITION_CONTEXT('part definition',#21,'design');
#16=PRODUCT_DEFINITION_FORMATION_WITH_SPECIFIED_SOURCE(' ',' ',#18,
 .NOT_KNOWN.);
#17=PRODUCT_RELATED_PRODUCT_CATEGORY('part','',(#18));
#18=PRODUCT('n 16 021 0010nxc001-01','n 16 021 0010nxc001-01',' ',(#19));
#19=PRODUCT_CONTEXT(' ',#21,'mechanical');
#20=APPLICATION_PROTOCOL_DEFINITION('international standard',
'automotive_design',2010,#21);
#21=APPLICATION_CONTEXT(
'core data for automotive mechanical design processes');
#22=SHAPE_REPRESENTATION('n 16 021 0010nxc001-01-None',(#221),#379);
#23=PRESENTATION_LAYER_ASSIGNMENT('1','Layer 1',(#32));
#24=STYLED_ITEM('',(#25),#32);
#25=PRESENTATION_STYLE_ASSIGNMENT((#26));
#26=SURFACE_STYLE_USAGE(.BOTH.,#27);
#27=SURFACE_SIDE_STYLE('',(#28));
#28=SURFACE_STYLE_FILL_AREA(#29);
#29=FILL_AREA_STYLE('',(#30));
#30=FILL_AREA_STYLE_COLOUR('',#31);
#31=COLOUR_RGB('Medium Gray',0.490196078431373,0.490196078431373,0.490196078431373);
#32=MANIFOLD_SOLID_BREP('R2',#33);
#33=CLOSED_SHELL('',(#49,#50,#51,#52,#53,#54,#55,#56,#57,#58,#59,#60,#61,
#62,#63,#64,#65));
#34=PLANE('',#241);
#35=PLANE('',#243);
#36=PLANE('',#246);
#37=PLANE('',#249);
#38=PLANE('',#252);
#39=CYLINDRICAL_SURFACE('',#239,13.3899999999999);
#40=CYLINDRICAL_SURFACE('',#242,11.9999999999996);
#41=CYLINDRICAL_SURFACE('',#245,14.15);
#42=CYLINDRICAL_SURFACE('',#247,13.0899999999998);
#43=CYLINDRICAL_SURFACE('',#251,14.9999999999999);
#44=CYLINDRICAL_SURFACE('',#255,13.4);
#45=CONICAL_SURFACE('',#230,13.3899999999999,44.9999999999982);
#46=CONICAL_SURFACE('',#233,13.1499999999997,44.9999999999941);
#47=CONICAL_SURFACE('',#236,11.9999999999995,44.9999999999984);
#48=CONICAL_SURFACE('',#254,13.4,59.);
#49=ADVANCED_FACE('F15',(#68,#69),#66,.F.);
#50=ADVANCED_FACE('F14',(#70,#71),#67,.F.);
#51=ADVANCED_FACE('F13',(#72,#73),#45,.F.);
#52=ADVANCED_FACE('F12',(#74,#75),#46,.T.);
#53=ADVANCED_FACE('F11',(#76,#77),#47,.F.);
#54=ADVANCED_FACE('F8',(#78,#79),#39,.F.);
#55=ADVANCED_FACE('F9',(#80,#81),#34,.F.);
#56=ADVANCED_FACE('F7',(#82,#83),#40,.F.);
#57=ADVANCED_FACE('F1',(#84,#85),#35,.T.);
#58=ADVANCED_FACE('F4',(#86,#87),#41,.T.);
#59=ADVANCED_FACE('F6',(#88,#89),#36,.T.);
#60=ADVANCED_FACE('F5',(#90,#91),#42,.T.);
#61=ADVANCED_FACE('F2',(#92,#93),#37,.T.);
#62=ADVANCED_FACE('F3',(#94,#95),#43,.T.);
#63=ADVANCED_FACE('F10',(#96,#97),#38,.T.);
#64=ADVANCED_FACE('',(#98,#99),#48,.F.);
#65=ADVANCED_FACE('',(#100,#101),#44,.F.);
#66=TOROIDAL_SURFACE('',#224,13.3899999999995,0.299999999999729);
#67=TOROIDAL_SURFACE('',#227,13.3899999999981,0.299999999997383);
#68=FACE_BOUND('',#102,.T.);
#69=FACE_BOUND('',#103,.T.);
#70=FACE_BOUND('',#104,.T.);
#71=FACE_BOUND('',#105,.T.);
#72=FACE_BOUND('',#106,.T.);
#73=FACE_BOUND('',#107,.T.);
#74=FACE_BOUND('',#108,.T.);
#75=FACE_BOUND('',#109,.T.);
#76=FACE_BOUND('',#110,.T.);
#77=FACE_BOUND('',#111,.T.);
#78=FACE_BOUND('',#112,.T.);
#79=FACE_BOUND('',#113,.T.);
#80=FACE_BOUND('',#114,.T.);
#81=FACE_BOUND('',#115,.T.);
#82=FACE_BOUND('',#116,.T.);
#83=FACE_BOUND('',#117,.T.);
#84=FACE_BOUND('',#118,.T.);
#85=FACE_BOUND('',#119,.T.);
#86=FACE_BOUND('',#120,.T.);
#87=FACE_BOUND('',#121,.T.);
#88=FACE_BOUND('',#122,.T.);
#89=FACE_BOUND('',#123,.T.);
#90=FACE_BOUND('',#124,.T.);
#91=FACE_BOUND('',#125,.T.);
#92=FACE_BOUND('',#126,.T.);
#93=FACE_BOUND('',#127,.T.);
#94=FACE_BOUND('',#128,.T.);
#95=FACE_BOUND('',#129,.T.);
#96=FACE_BOUND('',#130,.T.);
#97=FACE_BOUND('',#131,.T.);
#98=FACE_BOUND('',#132,.T.);
#99=FACE_BOUND('',#133,.T.);
#100=FACE_BOUND('',#134,.T.);
#101=FACE_BOUND('',#135,.T.);
#102=EDGE_LOOP('',(#136));
#103=EDGE_LOOP('',(#137));
#104=EDGE_LOOP('',(#138));
#105=EDGE_LOOP('',(#139));
#106=EDGE_LOOP('',(#140));
#107=EDGE_LOOP('',(#141));
#108=EDGE_LOOP('',(#142));
#109=EDGE_LOOP('',(#143));
#110=EDGE_LOOP('',(#144));
#111=EDGE_LOOP('',(#145));
#112=EDGE_LOOP('',(#146));
#113=EDGE_LOOP('',(#147));
#114=EDGE_LOOP('',(#148));
#115=EDGE_LOOP('',(#149));
#116=EDGE_LOOP('',(#150));
#117=EDGE_LOOP('',(#151));
#118=EDGE_LOOP('',(#152));
#119=EDGE_LOOP('',(#153));
#120=EDGE_LOOP('',(#154));
#121=EDGE_LOOP('',(#155));
#122=EDGE_LOOP('',(#156));
#123=EDGE_LOOP('',(#157));
#124=EDGE_LOOP('',(#158));
#125=EDGE_LOOP('',(#159));
#126=EDGE_LOOP('',(#160));
#127=EDGE_LOOP('',(#161));
#128=EDGE_LOOP('',(#162));
#129=EDGE_LOOP('',(#163));
#130=EDGE_LOOP('',(#164));
#131=EDGE_LOOP('',(#165));
#132=EDGE_LOOP('',(#166));
#133=EDGE_LOOP('',(#167));
#134=EDGE_LOOP('',(#168));
#135=EDGE_LOOP('',(#169));
#136=ORIENTED_EDGE('',*,*,#187,.F.);
#137=ORIENTED_EDGE('',*,*,#188,.F.);
#138=ORIENTED_EDGE('',*,*,#189,.F.);
#139=ORIENTED_EDGE('',*,*,#190,.F.);
#140=ORIENTED_EDGE('',*,*,#191,.F.);
#141=ORIENTED_EDGE('',*,*,#192,.F.);
#142=ORIENTED_EDGE('',*,*,#193,.F.);
#143=ORIENTED_EDGE('',*,*,#194,.F.);
#144=ORIENTED_EDGE('',*,*,#195,.T.);
#145=ORIENTED_EDGE('',*,*,#196,.F.);
#146=ORIENTED_EDGE('',*,*,#197,.T.);
#147=ORIENTED_EDGE('',*,*,#198,.F.);
#148=ORIENTED_EDGE('',*,*,#198,.T.);
#149=ORIENTED_EDGE('',*,*,#199,.T.);
#150=ORIENTED_EDGE('',*,*,#199,.F.);
#151=ORIENTED_EDGE('',*,*,#195,.F.);
#152=ORIENTED_EDGE('',*,*,#193,.T.);
#153=ORIENTED_EDGE('',*,*,#196,.T.);
#154=ORIENTED_EDGE('',*,*,#200,.T.);
#155=ORIENTED_EDGE('',*,*,#194,.T.);
#156=ORIENTED_EDGE('',*,*,#200,.F.);
#157=ORIENTED_EDGE('',*,*,#188,.T.);
#158=ORIENTED_EDGE('',*,*,#190,.T.);
#159=ORIENTED_EDGE('',*,*,#187,.T.);
#160=ORIENTED_EDGE('',*,*,#201,.F.);
#161=ORIENTED_EDGE('',*,*,#189,.T.);
#162=ORIENTED_EDGE('',*,*,#202,.T.);
#163=ORIENTED_EDGE('',*,*,#201,.T.);
#164=ORIENTED_EDGE('',*,*,#202,.F.);
#165=ORIENTED_EDGE('',*,*,#192,.T.);
#166=ORIENTED_EDGE('',*,*,#203,.T.);
#167=ORIENTED_EDGE('',*,*,#197,.F.);
#168=ORIENTED_EDGE('',*,*,#191,.T.);
#169=ORIENTED_EDGE('',*,*,#203,.F.);
#170=VERTEX_POINT('',#328);
#171=VERTEX_POINT('',#330);
#172=VERTEX_POINT('',#333);
#173=VERTEX_POINT('',#335);
#174=VERTEX_POINT('',#338);
#175=VERTEX_POINT('',#340);
#176=VERTEX_POINT('',#343);
#177=VERTEX_POINT('',#345);
#178=VERTEX_POINT('',#348);
#179=VERTEX_POINT('',#350);
#180=VERTEX_POINT('',#353);
#181=VERTEX_POINT('',#355);
#182=VERTEX_POINT('',#358);
#183=VERTEX_POINT('',#363);
#184=VERTEX_POINT('',#368);
#185=VERTEX_POINT('',#371);
#186=VERTEX_POINT('',#375);
#187=EDGE_CURVE('E32',#170,#170,#204,.T.);
#188=EDGE_CURVE('E34',#171,#171,#205,.T.);
#189=EDGE_CURVE('E28',#172,#172,#206,.T.);
#190=EDGE_CURVE('E30',#173,#173,#207,.T.);
#191=EDGE_CURVE('',#174,#174,#208,.T.);
#192=EDGE_CURVE('E26',#175,#175,#209,.T.);
#193=EDGE_CURVE('E20',#176,#176,#210,.T.);
#194=EDGE_CURVE('E22',#177,#177,#211,.T.);
#195=EDGE_CURVE('E16',#178,#178,#212,.T.);
#196=EDGE_CURVE('E18',#179,#179,#213,.T.);
#197=EDGE_CURVE('',#180,#180,#214,.T.);
#198=EDGE_CURVE('E15',#181,#181,#215,.T.);
#199=EDGE_CURVE('E11',#182,#182,#216,.T.);
#200=EDGE_CURVE('E7',#183,#183,#217,.T.);
#201=EDGE_CURVE('E3',#184,#184,#218,.T.);
#202=EDGE_CURVE('E5',#185,#185,#219,.T.);
#203=EDGE_CURVE('',#186,#186,#220,.T.);
#204=CIRCLE('',#222,13.0899999999996);
#205=CIRCLE('',#223,13.39);
#206=CIRCLE('',#225,13.3899999999996);
#207=CIRCLE('',#226,13.0899999999996);
#208=CIRCLE('',#228,13.4);
#209=CIRCLE('',#229,14.3900000000002);
#210=CIRCLE('',#231,13.15);
#211=CIRCLE('',#232,14.1499999999998);
#212=CIRCLE('',#234,11.9999999999996);
#213=CIRCLE('',#235,12.4999999999999);
#214=CIRCLE('',#237,13.3899999999999);
#215=CIRCLE('',#238,13.3899999999999);
#216=CIRCLE('',#240,11.9999999999998);
#217=CIRCLE('',#244,14.15);
#218=CIRCLE('',#248,15.0000000000001);
#219=CIRCLE('',#250,15.);
#220=CIRCLE('',#253,13.4);
#221=AXIS2_PLACEMENT_3D('',#326,#256,#257);
#222=AXIS2_PLACEMENT_3D('',#327,#258,#259);
#223=AXIS2_PLACEMENT_3D('',#329,#260,#261);
#224=AXIS2_PLACEMENT_3D('',#331,#262,#263);
#225=AXIS2_PLACEMENT_3D('',#332,#264,#265);
#226=AXIS2_PLACEMENT_3D('',#334,#266,#267);
#227=AXIS2_PLACEMENT_3D('',#336,#268,#269);
#228=AXIS2_PLACEMENT_3D('',#337,#270,#271);
#229=AXIS2_PLACEMENT_3D('',#339,#272,#273);
#230=AXIS2_PLACEMENT_3D('',#341,#274,#275);
#231=AXIS2_PLACEMENT_3D('',#342,#276,#277);
#232=AXIS2_PLACEMENT_3D('',#344,#278,#279);
#233=AXIS2_PLACEMENT_3D('',#346,#280,#281);
#234=AXIS2_PLACEMENT_3D('',#347,#282,#283);
#235=AXIS2_PLACEMENT_3D('',#349,#284,#285);
#236=AXIS2_PLACEMENT_3D('',#351,#286,#287);
#237=AXIS2_PLACEMENT_3D('',#352,#288,#289);
#238=AXIS2_PLACEMENT_3D('',#354,#290,#291);
#239=AXIS2_PLACEMENT_3D('',#356,#292,#293);
#240=AXIS2_PLACEMENT_3D('',#357,#294,#295);
#241=AXIS2_PLACEMENT_3D('',#359,#296,#297);
#242=AXIS2_PLACEMENT_3D('',#360,#298,#299);
#243=AXIS2_PLACEMENT_3D('',#361,#300,#301);
#244=AXIS2_PLACEMENT_3D('',#362,#302,#303);
#245=AXIS2_PLACEMENT_3D('',#364,#304,#305);
#246=AXIS2_PLACEMENT_3D('',#365,#306,#307);
#247=AXIS2_PLACEMENT_3D('',#366,#308,#309);
#248=AXIS2_PLACEMENT_3D('',#367,#310,#311);
#249=AXIS2_PLACEMENT_3D('',#369,#312,#313);
#250=AXIS2_PLACEMENT_3D('',#370,#314,#315);
#251=AXIS2_PLACEMENT_3D('',#372,#316,#317);
#252=AXIS2_PLACEMENT_3D('',#373,#318,#319);
#253=AXIS2_PLACEMENT_3D('',#374,#320,#321);
#254=AXIS2_PLACEMENT_3D('',#376,#322,#323);
#255=AXIS2_PLACEMENT_3D('',#377,#324,#325);
#256=DIRECTION('',(0.,0.,1.));
#257=DIRECTION('',(1.,0.,0.));
#258=DIRECTION('',(-1.54554392128801E-13,-1.28988860449473E-14,-1.));
#259=DIRECTION('',(-1.,0.,1.54521586935754E-13));
#260=DIRECTION('',(1.50792443667122E-13,-1.22644129245105E-14,1.));
#261=DIRECTION('',(1.,0.,-1.50800457508365E-13));
#262=DIRECTION('',(-1.32212866137905E-13,-2.57977720898987E-14,-1.));
#263=DIRECTION('',(-1.,0.,1.32290088306786E-13));
#264=DIRECTION('',(-1.51091635023604E-13,-1.24371511347075E-14,-1.));
#265=DIRECTION('',(-1.,0.,1.51059564823676E-13));
#266=DIRECTION('',(1.54248343827557E-13,-1.27221889758381E-14,1.));
#267=DIRECTION('',(1.,0.,-1.54256541332091E-13));
#268=DIRECTION('',(-1.72483817012094E-13,-8.63691050982112E-17,-1.));
#269=DIRECTION('',(-1.,0.,1.72585345089934E-13));
#270=DIRECTION('',(-1.69283446000226E-13,1.46879617132576E-27,-1.));
#271=DIRECTION('',(-1.,0.,1.69329724371467E-13));
#272=DIRECTION('',(1.66842063290611E-13,0.,1.));
#273=DIRECTION('',(1.,0.,-1.66842063290609E-13));
#274=DIRECTION('',(-1.69283446000226E-13,1.46879617132576E-27,-1.));
#275=DIRECTION('',(-1.,0.,1.69292126036066E-13));
#276=DIRECTION('',(1.52321473277154E-13,0.,1.));
#277=DIRECTION('',(1.,0.,-1.52497364123893E-13));
#278=DIRECTION('',(-1.88469839133218E-13,0.,-1.));
#279=DIRECTION('',(-1.,0.,1.88551569332323E-13));
#280=DIRECTION('',(-1.52321473277152E-13,6.72872843311224E-28,-1.));
#281=DIRECTION('',(-1.,0.,1.52345413806982E-13));
#282=DIRECTION('',(-1.68259235058559E-13,-1.42632819135821E-14,-1.));
#283=DIRECTION('',(-1.,0.,1.68268177169756E-13));
#284=DIRECTION('',(-1.6152886565622E-13,-1.33226762955063E-14,-1.));
#285=DIRECTION('',(-1.,0.,1.61537450082961E-13));
#286=DIRECTION('',(1.44222201478768E-13,-2.7755575615628E-14,1.));
#287=DIRECTION('',(1.,0.,-1.44071184494967E-13));
#288=DIRECTION('',(0.,0.,-1.));
#289=DIRECTION('',(-1.,0.,0.));
#290=DIRECTION('',(-1.77796980018861E-13,0.,-1.));
#291=DIRECTION('',(1.,0.,-1.77747618300239E-13));
#292=DIRECTION('',(1.69240261447675E-13,7.47978391191386E-17,1.));
#293=DIRECTION('',(1.,0.,-1.69197076895125E-13));
#294=DIRECTION('',(1.68092311214259E-13,-1.37814142813733E-14,1.));
#295=DIRECTION('',(1.,0.,-1.67979056590424E-13));
#296=DIRECTION('',(1.77796980018861E-13,0.,1.));
#297=DIRECTION('',(1.,-7.09501901674514E-15,-1.77795278499815E-13));
#298=DIRECTION('',(-1.44556049167381E-13,2.75628285627443E-14,-1.));
#299=DIRECTION('',(-1.,0.,1.44560289664738E-13));
#300=DIRECTION('',(1.68364211737596E-13,0.,1.));
#301=DIRECTION('',(0.,-1.,0.));
#302=DIRECTION('',(1.88469839133216E-13,0.,1.));
#303=DIRECTION('',(1.,0.,-1.88551569332319E-13));
#304=DIRECTION('',(1.88469839133215E-13,-1.54743721682785E-27,1.));
#305=DIRECTION('',(1.,0.,-1.8855156933232E-13));
#306=DIRECTION('',(-1.68130696880817E-13,0.,-1.));
#307=DIRECTION('',(-1.,6.71337985203024E-15,1.68129399291672E-13));
#308=DIRECTION('',(1.32212866137905E-13,2.52676808825788E-14,1.));
#309=DIRECTION('',(1.,0.,-1.32257756228027E-13));
#310=DIRECTION('',(0.,0.,-1.));
#311=DIRECTION('',(-1.,0.,0.));
#312=DIRECTION('',(1.58823578415323E-13,0.,1.));
#313=DIRECTION('',(0.,1.,0.));
#314=DIRECTION('',(-1.1564823173178E-15,-5.74218024406196E-15,1.));
#315=DIRECTION('',(0.,-1.,-5.78241158658936E-15));
#316=DIRECTION('',(-3.85494105771864E-17,-7.67849683798981E-15,1.));
#317=DIRECTION('',(0.,-1.,-7.632783294298E-15));
#318=DIRECTION('',(-1.55574413669656E-13,0.,-1.));
#319=DIRECTION('',(1.,0.,-1.55575205496028E-13));
#320=DIRECTION('',(0.,0.,-1.));
#321=DIRECTION('',(1.,0.,0.));
#322=DIRECTION('',(0.,0.,-1.));
#323=DIRECTION('',(-1.,0.,2.89520482537572E-17));
#324=DIRECTION('',(0.,0.,1.));
#325=DIRECTION('',(1.,0.,0.));
#326=CARTESIAN_POINT('',(0.,0.,0.));
#327=CARTESIAN_POINT('',(-0.11124748906697,5.22337385590875,26.2000000000017));
#328=CARTESIAN_POINT('',(-13.2012474890666,5.22337385590875,26.2000000000037));
#329=CARTESIAN_POINT('',(-0.111247489066921,5.22337385590842,26.5000000000013));
#330=CARTESIAN_POINT('',(13.2787525109331,5.22337385590842,26.4999999999993));
#331=CARTESIAN_POINT('',(-0.111247489066987,5.22337385590862,26.2000000000018));
#332=CARTESIAN_POINT('',(-0.111247489067154,5.22337385590847,25.0000000000017));
#333=CARTESIAN_POINT('',(-13.5012474890668,5.22337385590847,25.0000000000037));
#334=CARTESIAN_POINT('',(-0.111247489067105,5.2233738559087,25.3000000000013));
#335=CARTESIAN_POINT('',(12.9787525109325,5.2233738559087,25.2999999999993));
#336=CARTESIAN_POINT('',(-0.111247489067035,5.2233738559083,25.2999999999993));
#337=CARTESIAN_POINT('',(-0.111247489066944,5.22337385590875,10.9900000000018));
#338=CARTESIAN_POINT('',(-13.5112474890669,5.22337385590875,10.9900000000041));
#339=CARTESIAN_POINT('',(-0.111247489066876,5.2233738559084,10.0000000000018));
#340=CARTESIAN_POINT('',(14.2787525109333,5.2233738559084,9.9999999999994));
#341=CARTESIAN_POINT('',(-0.111247489066942,5.22337385590875,11.0000000000019));
#342=CARTESIAN_POINT('',(-0.111247489066124,5.2233738559085,32.000000000002));
#343=CARTESIAN_POINT('',(13.0387525109338,5.2233738559085,32.));
#344=CARTESIAN_POINT('',(-0.111247489066197,5.2233738559085,31.0000000000013));
#345=CARTESIAN_POINT('',(-14.261247489066,5.2233738559085,31.000000000004));
#346=CARTESIAN_POINT('',(-0.111247489066368,5.22337385590863,32.000000000002));
#347=CARTESIAN_POINT('',(-0.111247489066141,5.22337385590767,31.5000000000013));
#348=CARTESIAN_POINT('',(-12.1112474890657,5.22337385590767,31.5000000000034));
#349=CARTESIAN_POINT('',(-0.111247489066038,5.22337385590784,32.0000000000013));
#350=CARTESIAN_POINT('',(-12.611247489066,5.22337385590784,32.0000000000034));
#351=CARTESIAN_POINT('',(-0.111247489065617,5.22337385590795,31.5000000000013));
#352=CARTESIAN_POINT('',(-0.111247489066876,5.2233738559084,18.5060086061921));
#353=CARTESIAN_POINT('',(-13.5012474890668,5.2233738559084,18.5060086061921));
#354=CARTESIAN_POINT('',(-0.111247489064717,5.22337385590851,23.5000000000015));
#355=CARTESIAN_POINT('',(13.2787525109352,5.22337385590851,23.4999999999991));
#356=CARTESIAN_POINT('',(-0.111247489067002,5.22337385590851,10.0000000000019));
#357=CARTESIAN_POINT('',(-0.111247489067324,5.22337385590798,23.5000000000017));
#358=CARTESIAN_POINT('',(11.8887525109325,5.22337385590798,23.4999999999996));
#359=CARTESIAN_POINT('',(-14.170746318994,-8.8361255034787,23.500000000004));
#360=CARTESIAN_POINT('',(-0.111247489066277,5.22337385590833,32.0000000000013));
#361=CARTESIAN_POINT('',(-14.968747738748,20.080873728545,32.000000000004));
#362=CARTESIAN_POINT('',(-0.111247489066927,5.22337385590849,26.5000000000013));
#363=CARTESIAN_POINT('',(14.0387525109331,5.22337385590849,26.4999999999987));
#364=CARTESIAN_POINT('',(-0.111247489066804,5.22337385590839,26.5000000000013));
#365=CARTESIAN_POINT('',(14.746251981705,-9.6341259919092,26.499999999999));
#366=CARTESIAN_POINT('',(-0.111247489067034,5.22337385590861,25.0000000000013));
#367=CARTESIAN_POINT('',(-0.111247489067129,5.2233738559084,25.));
#368=CARTESIAN_POINT('',(-15.1112474890672,5.2233738559084,25.));
#369=CARTESIAN_POINT('',(15.638751909137,-10.526625919341,24.999999999999));
#370=CARTESIAN_POINT('',(-0.111247489066937,5.2233738559085,9.99999999999983));
#371=CARTESIAN_POINT('',(-0.111247489066937,-9.77662614409149,9.99999999999975));
#372=CARTESIAN_POINT('',(-0.11124748906684,5.22337385590845,9.9999999999998));
#373=CARTESIAN_POINT('',(-15.861246734858,20.973372724654,10.000000000004));
#374=CARTESIAN_POINT('',(-0.111247489066876,5.2233738559084,18.5000000000018));
#375=CARTESIAN_POINT('',(13.2887525109331,5.2233738559084,18.5000000000018));
#376=CARTESIAN_POINT('',(-0.111247489066876,5.2233738559084,18.5000000000018));
#377=CARTESIAN_POINT('',(-0.111247489066876,5.2233738559084,10.0000000000018));
#378=MECHANICAL_DESIGN_GEOMETRIC_PRESENTATION_REPRESENTATION('',(#24),#379);
#379=(
GEOMETRIC_REPRESENTATION_CONTEXT(3)
GLOBAL_UNCERTAINTY_ASSIGNED_CONTEXT((#380))
GLOBAL_UNIT_ASSIGNED_CONTEXT((#386,#382,#381))
REPRESENTATION_CONTEXT('n 16 021 0010nxc001-01',
'TOP_LEVEL_ASSEMBLY_PART')
);
#380=UNCERTAINTY_MEASURE_WITH_UNIT(LENGTH_MEASURE(2.E-5),#386,
'DISTANCE_ACCURACY_VALUE','Maximum Tolerance applied to model');
#381=(
NAMED_UNIT(*)
SI_UNIT($,.STERADIAN.)
SOLID_ANGLE_UNIT()
);
#382=(
CONVERSION_BASED_UNIT('DEGREE',#384)
NAMED_UNIT(#383)
PLANE_ANGLE_UNIT()
);
#383=DIMENSIONAL_EXPONENTS(0.,0.,0.,0.,0.,0.,0.);
#384=PLANE_ANGLE_MEASURE_WITH_UNIT(PLANE_ANGLE_MEASURE(0.0174532925),#385);
#385=(
NAMED_UNIT(*)
PLANE_ANGLE_UNIT()
SI_UNIT($,.RADIAN.)
);
#386=(
LENGTH_UNIT()
NAMED_UNIT(*)
SI_UNIT(.MILLI.,.METRE.)
);
ENDSEC;
END-ISO-10303-21;
