ISO-10303-21;
HEADER;
/* Generated by software containing ST-Developer
 * from STEP Tools, Inc. (www.steptools.com) 
 */
/* OPTION: using custom schema-name function */

FILE_DESCRIPTION(
/* description */ (''),
/* implementation_level */ '2;1');

FILE_NAME(
/* name */ 'n 16 029 0010nxc001-04.stp',
/* time_stamp */ '2019-07-25T10:28:23+02:00',
/* author */ (''),
/* organization */ (''),
/* preprocessor_version */ 'ST-DEVELOPER v16.7',
/* originating_system */ 'SIEMENS PLM Software NX 12.0',
/* authorisation */ '');

FILE_SCHEMA (('AUTOMOTIVE_DESIGN { 1 0 10303 214 3 1 1 1 }'));
ENDSEC;

DATA;
#10=SHAPE_REPRESENTATION_RELATIONSHIP('None',
'relationship between n 16 029 0010nxc001-04-None and n 16 029 0010nxc
001-04-None',#22,#11);
#11=ADVANCED_BREP_SHAPE_REPRESENTATION('n 16 029 0010nxc001-04-None',(#32),
#339);
#12=SHAPE_DEFINITION_REPRESENTATION(#13,#22);
#13=PRODUCT_DEFINITION_SHAPE('','',#14);
#14=PRODUCT_DEFINITION(' ','',#16,#15);
#15=PRODUCT_DEFINITION_CONTEXT('part definition',#21,'design');
#16=PRODUCT_DEFINITION_FORMATION_WITH_SPECIFIED_SOURCE(' ',' ',#18,
 .NOT_KNOWN.);
#17=PRODUCT_RELATED_PRODUCT_CATEGORY('part','',(#18));
#18=PRODUCT('n 16 029 0010nxc001-04','n 16 029 0010nxc001-04',' ',(#19));
#19=PRODUCT_CONTEXT(' ',#21,'mechanical');
#20=APPLICATION_PROTOCOL_DEFINITION('international standard',
'automotive_design',2010,#21);
#21=APPLICATION_CONTEXT(
'core data for automotive mechanical design processes');
#22=SHAPE_REPRESENTATION('n 16 029 0010nxc001-04-None',(#199),#339);
#23=PRESENTATION_LAYER_ASSIGNMENT('1','Layer 1',(#32));
#24=STYLED_ITEM('',(#25),#32);
#25=PRESENTATION_STYLE_ASSIGNMENT((#26));
#26=SURFACE_STYLE_USAGE(.BOTH.,#27);
#27=SURFACE_SIDE_STYLE('',(#28));
#28=SURFACE_STYLE_FILL_AREA(#29);
#29=FILL_AREA_STYLE('',(#30));
#30=FILL_AREA_STYLE_COLOUR('',#31);
#31=COLOUR_RGB('Medium Gray',0.490196078431373,0.490196078431373,0.490196078431373);
#32=MANIFOLD_SOLID_BREP('',#33);
#33=CLOSED_SHELL('',(#44,#45,#46,#47,#48,#49,#50,#51,#52,#53,#54,#55,#56,
#57,#58));
#34=CONICAL_SURFACE('',#223,16.,44.9999999999998);
#35=CONICAL_SURFACE('',#224,17.,45.);
#36=CONICAL_SURFACE('',#226,17.775,59.);
#37=CONICAL_SURFACE('',#229,18.5000000000001,45.0000000000001);
#38=CYLINDRICAL_SURFACE('',#205,16.);
#39=CYLINDRICAL_SURFACE('',#209,17.75);
#40=CYLINDRICAL_SURFACE('',#214,19.5);
#41=CYLINDRICAL_SURFACE('',#218,17.74);
#42=CYLINDRICAL_SURFACE('',#222,18.5);
#43=CYLINDRICAL_SURFACE('',#228,17.775);
#44=ADVANCED_FACE('',(#64,#65),#59,.T.);
#45=ADVANCED_FACE('',(#66,#67),#38,.F.);
#46=ADVANCED_FACE('',(#68,#69),#60,.F.);
#47=ADVANCED_FACE('',(#70,#71),#39,.F.);
#48=ADVANCED_FACE('',(#72,#73),#61,.T.);
#49=ADVANCED_FACE('',(#74,#75),#40,.T.);
#50=ADVANCED_FACE('',(#76,#77),#62,.T.);
#51=ADVANCED_FACE('',(#78,#79),#41,.T.);
#52=ADVANCED_FACE('',(#80,#81),#63,.T.);
#53=ADVANCED_FACE('',(#82,#83),#42,.T.);
#54=ADVANCED_FACE('',(#84,#85),#34,.F.);
#55=ADVANCED_FACE('',(#86,#87),#35,.T.);
#56=ADVANCED_FACE('',(#88,#89),#36,.F.);
#57=ADVANCED_FACE('',(#90,#91),#43,.F.);
#58=ADVANCED_FACE('',(#92,#93),#37,.F.);
#59=PLANE('',#202);
#60=PLANE('',#207);
#61=PLANE('',#212);
#62=PLANE('',#216);
#63=PLANE('',#220);
#64=FACE_BOUND('',#94,.T.);
#65=FACE_BOUND('',#95,.T.);
#66=FACE_BOUND('',#96,.T.);
#67=FACE_BOUND('',#97,.T.);
#68=FACE_BOUND('',#98,.T.);
#69=FACE_BOUND('',#99,.T.);
#70=FACE_BOUND('',#100,.T.);
#71=FACE_BOUND('',#101,.T.);
#72=FACE_BOUND('',#102,.T.);
#73=FACE_BOUND('',#103,.T.);
#74=FACE_BOUND('',#104,.T.);
#75=FACE_BOUND('',#105,.T.);
#76=FACE_BOUND('',#106,.T.);
#77=FACE_BOUND('',#107,.T.);
#78=FACE_BOUND('',#108,.T.);
#79=FACE_BOUND('',#109,.T.);
#80=FACE_BOUND('',#110,.T.);
#81=FACE_BOUND('',#111,.T.);
#82=FACE_BOUND('',#112,.T.);
#83=FACE_BOUND('',#113,.T.);
#84=FACE_BOUND('',#114,.T.);
#85=FACE_BOUND('',#115,.T.);
#86=FACE_BOUND('',#116,.T.);
#87=FACE_BOUND('',#117,.T.);
#88=FACE_BOUND('',#118,.T.);
#89=FACE_BOUND('',#119,.T.);
#90=FACE_BOUND('',#120,.T.);
#91=FACE_BOUND('',#121,.T.);
#92=FACE_BOUND('',#122,.T.);
#93=FACE_BOUND('',#123,.T.);
#94=EDGE_LOOP('',(#124));
#95=EDGE_LOOP('',(#125));
#96=EDGE_LOOP('',(#126));
#97=EDGE_LOOP('',(#127));
#98=EDGE_LOOP('',(#128));
#99=EDGE_LOOP('',(#129));
#100=EDGE_LOOP('',(#130));
#101=EDGE_LOOP('',(#131));
#102=EDGE_LOOP('',(#132));
#103=EDGE_LOOP('',(#133));
#104=EDGE_LOOP('',(#134));
#105=EDGE_LOOP('',(#135));
#106=EDGE_LOOP('',(#136));
#107=EDGE_LOOP('',(#137));
#108=EDGE_LOOP('',(#138));
#109=EDGE_LOOP('',(#139));
#110=EDGE_LOOP('',(#140));
#111=EDGE_LOOP('',(#141));
#112=EDGE_LOOP('',(#142));
#113=EDGE_LOOP('',(#143));
#114=EDGE_LOOP('',(#144));
#115=EDGE_LOOP('',(#145));
#116=EDGE_LOOP('',(#146));
#117=EDGE_LOOP('',(#147));
#118=EDGE_LOOP('',(#148));
#119=EDGE_LOOP('',(#149));
#120=EDGE_LOOP('',(#150));
#121=EDGE_LOOP('',(#151));
#122=EDGE_LOOP('',(#152));
#123=EDGE_LOOP('',(#153));
#124=ORIENTED_EDGE('',*,*,#169,.T.);
#125=ORIENTED_EDGE('',*,*,#170,.T.);
#126=ORIENTED_EDGE('',*,*,#171,.T.);
#127=ORIENTED_EDGE('',*,*,#172,.F.);
#128=ORIENTED_EDGE('',*,*,#172,.T.);
#129=ORIENTED_EDGE('',*,*,#173,.T.);
#130=ORIENTED_EDGE('',*,*,#174,.T.);
#131=ORIENTED_EDGE('',*,*,#173,.F.);
#132=ORIENTED_EDGE('',*,*,#175,.T.);
#133=ORIENTED_EDGE('',*,*,#176,.F.);
#134=ORIENTED_EDGE('',*,*,#177,.T.);
#135=ORIENTED_EDGE('',*,*,#176,.T.);
#136=ORIENTED_EDGE('',*,*,#178,.T.);
#137=ORIENTED_EDGE('',*,*,#177,.F.);
#138=ORIENTED_EDGE('',*,*,#179,.T.);
#139=ORIENTED_EDGE('',*,*,#178,.F.);
#140=ORIENTED_EDGE('',*,*,#179,.F.);
#141=ORIENTED_EDGE('',*,*,#180,.F.);
#142=ORIENTED_EDGE('',*,*,#181,.T.);
#143=ORIENTED_EDGE('',*,*,#180,.T.);
#144=ORIENTED_EDGE('',*,*,#170,.F.);
#145=ORIENTED_EDGE('',*,*,#171,.F.);
#146=ORIENTED_EDGE('',*,*,#181,.F.);
#147=ORIENTED_EDGE('',*,*,#169,.F.);
#148=ORIENTED_EDGE('',*,*,#182,.T.);
#149=ORIENTED_EDGE('',*,*,#174,.F.);
#150=ORIENTED_EDGE('',*,*,#183,.T.);
#151=ORIENTED_EDGE('',*,*,#182,.F.);
#152=ORIENTED_EDGE('',*,*,#183,.F.);
#153=ORIENTED_EDGE('',*,*,#175,.F.);
#154=VERTEX_POINT('',#294);
#155=VERTEX_POINT('',#296);
#156=VERTEX_POINT('',#299);
#157=VERTEX_POINT('',#301);
#158=VERTEX_POINT('',#304);
#159=VERTEX_POINT('',#307);
#160=VERTEX_POINT('',#310);
#161=VERTEX_POINT('',#312);
#162=VERTEX_POINT('',#315);
#163=VERTEX_POINT('',#318);
#164=VERTEX_POINT('',#321);
#165=VERTEX_POINT('',#324);
#166=VERTEX_POINT('',#327);
#167=VERTEX_POINT('',#332);
#168=VERTEX_POINT('',#335);
#169=EDGE_CURVE('',#154,#154,#184,.T.);
#170=EDGE_CURVE('',#155,#155,#185,.T.);
#171=EDGE_CURVE('',#156,#156,#186,.T.);
#172=EDGE_CURVE('',#157,#157,#187,.T.);
#173=EDGE_CURVE('',#158,#158,#188,.T.);
#174=EDGE_CURVE('',#159,#159,#189,.T.);
#175=EDGE_CURVE('',#160,#160,#190,.T.);
#176=EDGE_CURVE('',#161,#161,#191,.T.);
#177=EDGE_CURVE('',#162,#162,#192,.T.);
#178=EDGE_CURVE('',#163,#163,#193,.T.);
#179=EDGE_CURVE('',#164,#164,#194,.T.);
#180=EDGE_CURVE('',#165,#165,#195,.T.);
#181=EDGE_CURVE('',#166,#166,#196,.T.);
#182=EDGE_CURVE('',#167,#167,#197,.T.);
#183=EDGE_CURVE('',#168,#168,#198,.T.);
#184=CIRCLE('',#200,17.);
#185=CIRCLE('',#201,16.5);
#186=CIRCLE('',#203,16.);
#187=CIRCLE('',#204,16.);
#188=CIRCLE('',#206,17.75);
#189=CIRCLE('',#208,17.75);
#190=CIRCLE('',#210,18.5000000000029);
#191=CIRCLE('',#211,19.5);
#192=CIRCLE('',#213,19.5);
#193=CIRCLE('',#215,17.74);
#194=CIRCLE('',#217,17.74);
#195=CIRCLE('',#219,18.5);
#196=CIRCLE('',#221,18.5);
#197=CIRCLE('',#225,17.775);
#198=CIRCLE('',#227,17.775);
#199=AXIS2_PLACEMENT_3D('',#292,#230,#231);
#200=AXIS2_PLACEMENT_3D('',#293,#232,#233);
#201=AXIS2_PLACEMENT_3D('',#295,#234,#235);
#202=AXIS2_PLACEMENT_3D('',#297,#236,#237);
#203=AXIS2_PLACEMENT_3D('',#298,#238,#239);
#204=AXIS2_PLACEMENT_3D('',#300,#240,#241);
#205=AXIS2_PLACEMENT_3D('',#302,#242,#243);
#206=AXIS2_PLACEMENT_3D('',#303,#244,#245);
#207=AXIS2_PLACEMENT_3D('',#305,#246,#247);
#208=AXIS2_PLACEMENT_3D('',#306,#248,#249);
#209=AXIS2_PLACEMENT_3D('',#308,#250,#251);
#210=AXIS2_PLACEMENT_3D('',#309,#252,#253);
#211=AXIS2_PLACEMENT_3D('',#311,#254,#255);
#212=AXIS2_PLACEMENT_3D('',#313,#256,#257);
#213=AXIS2_PLACEMENT_3D('',#314,#258,#259);
#214=AXIS2_PLACEMENT_3D('',#316,#260,#261);
#215=AXIS2_PLACEMENT_3D('',#317,#262,#263);
#216=AXIS2_PLACEMENT_3D('',#319,#264,#265);
#217=AXIS2_PLACEMENT_3D('',#320,#266,#267);
#218=AXIS2_PLACEMENT_3D('',#322,#268,#269);
#219=AXIS2_PLACEMENT_3D('',#323,#270,#271);
#220=AXIS2_PLACEMENT_3D('',#325,#272,#273);
#221=AXIS2_PLACEMENT_3D('',#326,#274,#275);
#222=AXIS2_PLACEMENT_3D('',#328,#276,#277);
#223=AXIS2_PLACEMENT_3D('',#329,#278,#279);
#224=AXIS2_PLACEMENT_3D('',#330,#280,#281);
#225=AXIS2_PLACEMENT_3D('',#331,#282,#283);
#226=AXIS2_PLACEMENT_3D('',#333,#284,#285);
#227=AXIS2_PLACEMENT_3D('',#334,#286,#287);
#228=AXIS2_PLACEMENT_3D('',#336,#288,#289);
#229=AXIS2_PLACEMENT_3D('',#337,#290,#291);
#230=DIRECTION('',(0.,0.,1.));
#231=DIRECTION('',(1.,0.,0.));
#232=DIRECTION('',(1.51816225596536E-13,0.,1.));
#233=DIRECTION('',(1.,0.,-1.51839325426676E-13));
#234=DIRECTION('',(-1.51816225596536E-13,0.,-1.));
#235=DIRECTION('',(1.,0.,-1.51814587837001E-13));
#236=DIRECTION('',(1.51816225596536E-13,0.,1.));
#237=DIRECTION('',(0.,-1.,0.));
#238=DIRECTION('',(1.5178830414797E-13,0.,1.));
#239=DIRECTION('',(1.,0.,-1.51788304147971E-13));
#240=DIRECTION('',(1.51900698316757E-13,1.92747052886199E-16,1.));
#241=DIRECTION('',(-6.36968776335234E-16,-1.,2.16840434497101E-16));
#242=DIRECTION('',(-1.51853517639639E-13,4.28526156733046E-17,-1.));
#243=DIRECTION('',(-8.67361737988404E-16,-1.,0.));
#244=DIRECTION('',(-1.51801116709492E-13,0.,-1.));
#245=DIRECTION('',(1.,0.,-1.51873818685519E-13));
#246=DIRECTION('',(1.51801116709492E-13,0.,1.));
#247=DIRECTION('',(1.,-7.07767178198537E-15,-1.51802181935778E-13));
#248=DIRECTION('',(0.,0.,-1.));
#249=DIRECTION('',(-1.,0.,0.));
#250=DIRECTION('',(1.51844522038396E-13,-9.95097860074269E-28,1.));
#251=DIRECTION('',(1.,-6.5479703036871E-15,-1.51873818685519E-13));
#252=DIRECTION('',(1.51867738725345E-13,0.,1.));
#253=DIRECTION('',(-1.,0.,1.51905515193621E-13));
#254=DIRECTION('',(-5.27171426697587E-17,-5.47852617203295E-15,1.));
#255=DIRECTION('',(1.,0.,8.89601782552209E-17));
#256=DIRECTION('',(-1.51867738725345E-13,0.,-1.));
#257=DIRECTION('',(1.,-7.11757042193284E-15,-1.51868101427866E-13));
#258=DIRECTION('',(-1.05434285339516E-16,5.47852617203294E-15,-1.));
#259=DIRECTION('',(1.,-8.45121693424598E-16,-1.77920356510442E-16));
#260=DIRECTION('',(1.10823568503474E-16,-5.57214207434974E-15,1.));
#261=DIRECTION('',(1.,0.,-8.89601782552209E-17));
#262=DIRECTION('',(-1.51755792612006E-13,1.09937959905556E-28,-1.));
#263=DIRECTION('',(8.06734423720894E-16,1.,0.));
#264=DIRECTION('',(1.51825376734068E-13,0.,1.));
#265=DIRECTION('',(0.,1.,0.));
#266=DIRECTION('',(-1.51755792612006E-13,1.36289320053237E-28,-1.));
#267=DIRECTION('',(8.06734423720894E-16,1.,0.));
#268=DIRECTION('',(1.51643743858306E-13,-4.96261156216038E-16,1.));
#269=DIRECTION('',(-1.10009239598304E-16,1.,5.86715944524287E-16));
#270=DIRECTION('',(1.51816225596536E-13,0.,1.));
#271=DIRECTION('',(-1.,0.,1.51905515193645E-13));
#272=DIRECTION('',(-1.51816225596536E-13,0.,-1.));
#273=DIRECTION('',(-1.,7.14359127407249E-15,1.51816059723586E-13));
#274=DIRECTION('',(-1.51932864437635E-13,0.,-1.));
#275=DIRECTION('',(1.,0.,-1.51905515193645E-13));
#276=DIRECTION('',(1.519476154876E-13,-1.07317603251336E-27,1.));
#277=DIRECTION('',(-1.,7.03266274044652E-15,1.51905515193645E-13));
#278=DIRECTION('',(1.5178830414797E-13,0.,1.));
#279=DIRECTION('',(1.,0.,-1.51890748447734E-13));
#280=DIRECTION('',(-1.51932864437635E-13,0.,-1.));
#281=DIRECTION('',(-1.,0.,1.51905146387995E-13));
#282=DIRECTION('',(0.,0.,-1.));
#283=DIRECTION('',(1.,0.,0.));
#284=DIRECTION('',(0.,0.,-1.));
#285=DIRECTION('',(-1.,0.,-4.12524919776127E-18));
#286=DIRECTION('',(0.,0.,-1.));
#287=DIRECTION('',(-1.,0.,0.));
#288=DIRECTION('',(0.,0.,1.));
#289=DIRECTION('',(1.,0.,0.));
#290=DIRECTION('',(0.,0.,-1.));
#291=DIRECTION('',(-1.,0.,-6.81285606667373E-18));
#292=CARTESIAN_POINT('',(0.,0.,0.));
#293=CARTESIAN_POINT('',(-1.82743172535397,-5.39719554245522,34.5000000000018));
#294=CARTESIAN_POINT('',(15.172568274646,-5.39719554245522,34.4999999999992));
#295=CARTESIAN_POINT('',(-1.82743172535397,-5.39719554245523,34.5000000000018));
#296=CARTESIAN_POINT('',(14.672568274646,-5.39719554245523,34.4999999999993));
#297=CARTESIAN_POINT('',(-21.252430044114,14.027802725138,34.5000000000048));
#298=CARTESIAN_POINT('',(-1.82743172535405,-5.39719554245523,34.0000000000018));
#299=CARTESIAN_POINT('',(14.172568274646,-5.39719554245523,33.9999999999994));
#300=CARTESIAN_POINT('',(-1.82743172535541,-5.39719554245523,25.0000000000018));
#301=CARTESIAN_POINT('',(-1.82743172535543,-21.3971955424552,25.0000000000018));
#302=CARTESIAN_POINT('',(-1.82743172535442,-5.39719554245523,31.5000000000018));
#303=CARTESIAN_POINT('',(-1.82743172535292,-5.39719554245516,25.0000000000018));
#304=CARTESIAN_POINT('',(15.9225682746471,-5.39719554245516,24.9999999999991));
#305=CARTESIAN_POINT('',(-20.4544300213436,-24.0241955175978,25.0000000000047));
#306=CARTESIAN_POINT('',(-1.82743172535519,-5.39719554245516,19.0150215154775));
#307=CARTESIAN_POINT('',(-19.5774317253552,-5.39719554245516,19.0150215154775));
#308=CARTESIAN_POINT('',(-1.82743172535519,-5.39719554245516,10.0000000000018));
#309=CARTESIAN_POINT('',(-1.82743172535519,-5.39719554245516,10.0000000000018));
#310=CARTESIAN_POINT('',(-20.3274317253581,-5.39719554245516,10.0000000000046));
#311=CARTESIAN_POINT('',(-1.82743172535518,-5.39719554245515,9.99999999999982));
#312=CARTESIAN_POINT('',(17.6725682746448,-5.39719554245515,9.99999999999982));
#313=CARTESIAN_POINT('',(-22.302430123091,15.0778028041143,10.0000000000049));
#314=CARTESIAN_POINT('',(-1.8274317253552,-5.39719554245522,26.5));
#315=CARTESIAN_POINT('',(17.6725682746448,-5.39719554245524,26.5));
#316=CARTESIAN_POINT('',(-1.82743172535518,-5.39719554245515,9.99999999999982));
#317=CARTESIAN_POINT('',(-1.82743172535519,-5.39719554245523,26.5000000000018));
#318=CARTESIAN_POINT('',(-1.82743172535518,12.3428044575448,26.5000000000018));
#319=CARTESIAN_POINT('',(18.6475683003662,-25.8721956193433,26.4999999999987));
#320=CARTESIAN_POINT('',(-1.82743172535496,-5.39719554245523,28.5000000000018));
#321=CARTESIAN_POINT('',(-1.82743172535495,12.3428044575448,28.5000000000018));
#322=CARTESIAN_POINT('',(-1.82743172535518,-5.39719554245522,26.5000000000018));
#323=CARTESIAN_POINT('',(-1.82743172535496,-5.39719554245522,28.5000000000018));
#324=CARTESIAN_POINT('',(-20.327431725355,-5.39719554245522,28.5000000000046));
#325=CARTESIAN_POINT('',(17.5975663587451,-24.822193677722,28.4999999999988));
#326=CARTESIAN_POINT('',(-1.8274317253542,-5.39719554245522,33.0000000000018));
#327=CARTESIAN_POINT('',(16.6725682746458,-5.39719554245522,32.999999999999));
#328=CARTESIAN_POINT('',(-1.82743172535496,-5.39719554245522,28.0000000000018));
#329=CARTESIAN_POINT('',(-1.82743172535405,-5.39719554245523,34.0000000000018));
#330=CARTESIAN_POINT('',(-1.82743172535397,-5.39719554245522,34.5000000000018));
#331=CARTESIAN_POINT('',(-1.82743172535519,-5.39719554245516,19.0000000000018));
#332=CARTESIAN_POINT('',(15.9475682746448,-5.39719554245516,19.0000000000018));
#333=CARTESIAN_POINT('',(-1.82743172535519,-5.39719554245516,19.0000000000018));
#334=CARTESIAN_POINT('',(-1.82743172535519,-5.39719554245516,10.7250000000019));
#335=CARTESIAN_POINT('',(-19.6024317253552,-5.39719554245516,10.7250000000019));
#336=CARTESIAN_POINT('',(-1.82743172535519,-5.39719554245516,10.0000000000018));
#337=CARTESIAN_POINT('',(-1.82743172535519,-5.39719554245516,10.0000000000018));
#338=MECHANICAL_DESIGN_GEOMETRIC_PRESENTATION_REPRESENTATION('',(#24),#339);
#339=(
GEOMETRIC_REPRESENTATION_CONTEXT(3)
GLOBAL_UNCERTAINTY_ASSIGNED_CONTEXT((#340))
GLOBAL_UNIT_ASSIGNED_CONTEXT((#346,#342,#341))
REPRESENTATION_CONTEXT('n 16 029 0010nxc001-04',
'TOP_LEVEL_ASSEMBLY_PART')
);
#340=UNCERTAINTY_MEASURE_WITH_UNIT(LENGTH_MEASURE(2.E-5),#346,
'DISTANCE_ACCURACY_VALUE','Maximum Tolerance applied to model');
#341=(
NAMED_UNIT(*)
SI_UNIT($,.STERADIAN.)
SOLID_ANGLE_UNIT()
);
#342=(
CONVERSION_BASED_UNIT('DEGREE',#344)
NAMED_UNIT(#343)
PLANE_ANGLE_UNIT()
);
#343=DIMENSIONAL_EXPONENTS(0.,0.,0.,0.,0.,0.,0.);
#344=PLANE_ANGLE_MEASURE_WITH_UNIT(PLANE_ANGLE_MEASURE(0.0174532925),#345);
#345=(
NAMED_UNIT(*)
PLANE_ANGLE_UNIT()
SI_UNIT($,.RADIAN.)
);
#346=(
LENGTH_UNIT()
NAMED_UNIT(*)
SI_UNIT(.MILLI.,.METRE.)
);
ENDSEC;
END-ISO-10303-21;
