ISO-10303-21;
HEADER;
/* Generated by software containing ST-Developer
 * from STEP Tools, Inc. (www.steptools.com) 
 */
/* OPTION: using custom schema-name function */

FILE_DESCRIPTION(
/* description */ (''),
/* implementation_level */ '2;1');

FILE_NAME(
/* name */ 'n 01 025 0035 x.stp',
/* time_stamp */ '2018-09-25T11:23:41+02:00',
/* author */ (''),
/* organization */ (''),
/* preprocessor_version */ 'ST-DEVELOPER v16',
/* originating_system */ 'SIEMENS PLM Software NX 11.0',
/* authorisation */ '');

FILE_SCHEMA (('AUTOMOTIVE_DESIGN { 1 0 10303 214 3 1 1 1 }'));
ENDSEC;

DATA;
#10=SHAPE_REPRESENTATION_RELATIONSHIP('None',
'relationship between n 01 025 0035nxm001-03-None and n 01 025 0035nxm
001-03-None',#22,#11);
#11=ADVANCED_BREP_SHAPE_REPRESENTATION('n 01 025 0035nxm001-03-None',(#110),
#350);
#12=SHAPE_DEFINITION_REPRESENTATION(#13,#22);
#13=PRODUCT_DEFINITION_SHAPE('','',#14);
#14=PRODUCT_DEFINITION(' ','',#16,#15);
#15=PRODUCT_DEFINITION_CONTEXT('part definition',#21,'design');
#16=PRODUCT_DEFINITION_FORMATION_WITH_SPECIFIED_SOURCE(' ',' ',#18,
 .NOT_KNOWN.);
#17=PRODUCT_RELATED_PRODUCT_CATEGORY('part','',(#18));
#18=PRODUCT('n 01 025 0035nxm001-03','n 01 025 0035nxm001-03',' ',(#19));
#19=PRODUCT_CONTEXT(' ',#21,'mechanical');
#20=APPLICATION_PROTOCOL_DEFINITION('international standard',
'automotive_design',2010,#21);
#21=APPLICATION_CONTEXT(
'core data for automotive mechanical design processes');
#22=SHAPE_REPRESENTATION('n 01 025 0035nxm001-03-None',(#227),#350);
#23=OVER_RIDING_STYLED_ITEM('',(#38),#132,#36);
#24=OVER_RIDING_STYLED_ITEM('',(#39),#133,#36);
#25=OVER_RIDING_STYLED_ITEM('',(#40),#134,#36);
#26=OVER_RIDING_STYLED_ITEM('',(#41),#135,#36);
#27=OVER_RIDING_STYLED_ITEM('',(#42),#136,#36);
#28=OVER_RIDING_STYLED_ITEM('',(#43),#137,#36);
#29=OVER_RIDING_STYLED_ITEM('',(#44),#138,#36);
#30=OVER_RIDING_STYLED_ITEM('',(#45),#139,#36);
#31=OVER_RIDING_STYLED_ITEM('',(#46),#140,#36);
#32=OVER_RIDING_STYLED_ITEM('',(#47),#141,#36);
#33=OVER_RIDING_STYLED_ITEM('',(#48),#142,#36);
#34=DRAUGHTING_PRE_DEFINED_COLOUR('red');
#35=PRESENTATION_LAYER_ASSIGNMENT('1','Layer 1',(#110));
#36=STYLED_ITEM('',(#37),#110);
#37=PRESENTATION_STYLE_ASSIGNMENT((#49));
#38=PRESENTATION_STYLE_ASSIGNMENT((#50));
#39=PRESENTATION_STYLE_ASSIGNMENT((#51));
#40=PRESENTATION_STYLE_ASSIGNMENT((#52));
#41=PRESENTATION_STYLE_ASSIGNMENT((#53));
#42=PRESENTATION_STYLE_ASSIGNMENT((#54));
#43=PRESENTATION_STYLE_ASSIGNMENT((#55));
#44=PRESENTATION_STYLE_ASSIGNMENT((#56));
#45=PRESENTATION_STYLE_ASSIGNMENT((#57));
#46=PRESENTATION_STYLE_ASSIGNMENT((#58));
#47=PRESENTATION_STYLE_ASSIGNMENT((#59));
#48=PRESENTATION_STYLE_ASSIGNMENT((#60));
#49=SURFACE_STYLE_USAGE(.BOTH.,#61);
#50=SURFACE_STYLE_USAGE(.BOTH.,#62);
#51=SURFACE_STYLE_USAGE(.BOTH.,#63);
#52=SURFACE_STYLE_USAGE(.BOTH.,#64);
#53=SURFACE_STYLE_USAGE(.BOTH.,#65);
#54=SURFACE_STYLE_USAGE(.BOTH.,#66);
#55=SURFACE_STYLE_USAGE(.BOTH.,#67);
#56=SURFACE_STYLE_USAGE(.BOTH.,#68);
#57=SURFACE_STYLE_USAGE(.BOTH.,#69);
#58=SURFACE_STYLE_USAGE(.BOTH.,#70);
#59=SURFACE_STYLE_USAGE(.BOTH.,#71);
#60=SURFACE_STYLE_USAGE(.BOTH.,#72);
#61=SURFACE_SIDE_STYLE('',(#73));
#62=SURFACE_SIDE_STYLE('',(#74));
#63=SURFACE_SIDE_STYLE('',(#75));
#64=SURFACE_SIDE_STYLE('',(#76));
#65=SURFACE_SIDE_STYLE('',(#77));
#66=SURFACE_SIDE_STYLE('',(#78));
#67=SURFACE_SIDE_STYLE('',(#79));
#68=SURFACE_SIDE_STYLE('',(#80));
#69=SURFACE_SIDE_STYLE('',(#81));
#70=SURFACE_SIDE_STYLE('',(#82));
#71=SURFACE_SIDE_STYLE('',(#83));
#72=SURFACE_SIDE_STYLE('',(#84));
#73=SURFACE_STYLE_FILL_AREA(#85);
#74=SURFACE_STYLE_FILL_AREA(#86);
#75=SURFACE_STYLE_FILL_AREA(#87);
#76=SURFACE_STYLE_FILL_AREA(#88);
#77=SURFACE_STYLE_FILL_AREA(#89);
#78=SURFACE_STYLE_FILL_AREA(#90);
#79=SURFACE_STYLE_FILL_AREA(#91);
#80=SURFACE_STYLE_FILL_AREA(#92);
#81=SURFACE_STYLE_FILL_AREA(#93);
#82=SURFACE_STYLE_FILL_AREA(#94);
#83=SURFACE_STYLE_FILL_AREA(#95);
#84=SURFACE_STYLE_FILL_AREA(#96);
#85=FILL_AREA_STYLE('',(#97));
#86=FILL_AREA_STYLE('',(#98));
#87=FILL_AREA_STYLE('',(#99));
#88=FILL_AREA_STYLE('',(#100));
#89=FILL_AREA_STYLE('',(#101));
#90=FILL_AREA_STYLE('',(#102));
#91=FILL_AREA_STYLE('',(#103));
#92=FILL_AREA_STYLE('',(#104));
#93=FILL_AREA_STYLE('',(#105));
#94=FILL_AREA_STYLE('',(#106));
#95=FILL_AREA_STYLE('',(#107));
#96=FILL_AREA_STYLE('',(#108));
#97=FILL_AREA_STYLE_COLOUR('',#109);
#98=FILL_AREA_STYLE_COLOUR('',#34);
#99=FILL_AREA_STYLE_COLOUR('',#34);
#100=FILL_AREA_STYLE_COLOUR('',#34);
#101=FILL_AREA_STYLE_COLOUR('',#34);
#102=FILL_AREA_STYLE_COLOUR('',#34);
#103=FILL_AREA_STYLE_COLOUR('',#34);
#104=FILL_AREA_STYLE_COLOUR('',#34);
#105=FILL_AREA_STYLE_COLOUR('',#34);
#106=FILL_AREA_STYLE_COLOUR('',#34);
#107=FILL_AREA_STYLE_COLOUR('',#34);
#108=FILL_AREA_STYLE_COLOUR('',#34);
#109=COLOUR_RGB('Mittleres Stahlblau',0.596063172350652,0.666666666666667,
0.686259250782025);
#110=MANIFOLD_SOLID_BREP('',#111);
#111=CLOSED_SHELL('',(#132,#133,#134,#135,#136,#137,#138,#139,#140,#141,
#142));
#112=FACE_OUTER_BOUND('',#157,.T.);
#113=PLANE('',#239);
#114=PLANE('',#241);
#115=CONICAL_SURFACE('',#233,1.49,60.);
#116=CONICAL_SURFACE('',#235,2.14080892972014,19.9999999999997);
#117=CONICAL_SURFACE('',#245,1.55,60.);
#118=(
BOUNDED_SURFACE()
B_SPLINE_SURFACE(2,2,((#306,#307,#308),(#309,#310,#311),(#312,#313,#314),
(#315,#316,#317),(#318,#319,#320),(#321,#322,#323),(#324,#325,#326)),
 .UNSPECIFIED.,.T.,.F.,.F.)
B_SPLINE_SURFACE_WITH_KNOTS((1,2,2,2,2,1),(3,3),(-0.333333333333334,0.,
0.333333333333333,0.666666666666666,1.,1.33333333333333),(0.,1.),
 .UNSPECIFIED.)
GEOMETRIC_REPRESENTATION_ITEM()
RATIONAL_B_SPLINE_SURFACE(((1.,0.866025403784439,1.),(0.5,0.43301270189222,
0.5),(1.,0.866025403784439,1.),(0.5,0.43301270189222,0.5),(1.,0.866025403784439,
1.),(0.5,0.43301270189222,0.5),(1.,0.866025403784439,1.)))
REPRESENTATION_ITEM('')
SURFACE()
);
#119=CYLINDRICAL_SURFACE('',#230,1.24);
#120=CYLINDRICAL_SURFACE('',#237,2.25);
#121=CYLINDRICAL_SURFACE('',#243,2.25);
#122=CYLINDRICAL_SURFACE('',#246,1.3);
#123=CIRCLE('',#229,1.24);
#124=CIRCLE('',#231,1.49);
#125=CIRCLE('',#232,2.14080892972014);
#126=CIRCLE('',#234,2.25);
#127=CIRCLE('',#236,2.25);
#128=CIRCLE('',#238,1.3);
#129=CIRCLE('',#240,2.25);
#130=CIRCLE('',#242,2.25);
#131=CIRCLE('',#244,1.3);
#132=ADVANCED_FACE('',(#195,#196),#143,.T.);
#133=ADVANCED_FACE('',(#197,#198),#119,.T.);
#134=ADVANCED_FACE('',(#199,#200),#118,.T.);
#135=ADVANCED_FACE('',(#201,#202),#115,.T.);
#136=ADVANCED_FACE('',(#203,#204),#116,.T.);
#137=ADVANCED_FACE('',(#205,#206),#120,.T.);
#138=ADVANCED_FACE('',(#207,#208),#113,.T.);
#139=ADVANCED_FACE('',(#112),#114,.T.);
#140=ADVANCED_FACE('',(#209,#210),#121,.T.);
#141=ADVANCED_FACE('',(#211,#212),#117,.T.);
#142=ADVANCED_FACE('',(#213,#214),#122,.T.);
#143=SPHERICAL_SURFACE('',#228,1.24999983871745);
#144=EDGE_LOOP('',(#164));
#145=EDGE_LOOP('',(#165));
#146=EDGE_LOOP('',(#166));
#147=EDGE_LOOP('',(#167));
#148=EDGE_LOOP('',(#168));
#149=EDGE_LOOP('',(#169));
#150=EDGE_LOOP('',(#170));
#151=EDGE_LOOP('',(#171));
#152=EDGE_LOOP('',(#172));
#153=EDGE_LOOP('',(#173));
#154=EDGE_LOOP('',(#174));
#155=EDGE_LOOP('',(#175));
#156=EDGE_LOOP('',(#176));
#157=EDGE_LOOP('',(#177));
#158=EDGE_LOOP('',(#178));
#159=EDGE_LOOP('',(#179));
#160=EDGE_LOOP('',(#180));
#161=EDGE_LOOP('',(#181));
#162=EDGE_LOOP('',(#182));
#163=EDGE_LOOP('',(#183));
#164=ORIENTED_EDGE('',*,*,#184,.T.);
#165=ORIENTED_EDGE('',*,*,#184,.F.);
#166=ORIENTED_EDGE('',*,*,#185,.T.);
#167=ORIENTED_EDGE('',*,*,#185,.F.);
#168=ORIENTED_EDGE('',*,*,#186,.T.);
#169=ORIENTED_EDGE('',*,*,#186,.F.);
#170=ORIENTED_EDGE('',*,*,#187,.T.);
#171=ORIENTED_EDGE('',*,*,#187,.F.);
#172=ORIENTED_EDGE('',*,*,#188,.F.);
#173=ORIENTED_EDGE('',*,*,#188,.T.);
#174=ORIENTED_EDGE('',*,*,#189,.T.);
#175=ORIENTED_EDGE('',*,*,#190,.T.);
#176=ORIENTED_EDGE('',*,*,#189,.F.);
#177=ORIENTED_EDGE('',*,*,#191,.F.);
#178=ORIENTED_EDGE('',*,*,#192,.T.);
#179=ORIENTED_EDGE('',*,*,#191,.T.);
#180=ORIENTED_EDGE('',*,*,#193,.T.);
#181=ORIENTED_EDGE('',*,*,#192,.F.);
#182=ORIENTED_EDGE('',*,*,#190,.F.);
#183=ORIENTED_EDGE('',*,*,#193,.F.);
#184=EDGE_CURVE('',#217,#217,#194,.T.);
#185=EDGE_CURVE('',#218,#218,#123,.T.);
#186=EDGE_CURVE('',#219,#219,#124,.T.);
#187=EDGE_CURVE('',#220,#220,#125,.T.);
#188=EDGE_CURVE('',#221,#221,#126,.T.);
#189=EDGE_CURVE('',#222,#222,#127,.T.);
#190=EDGE_CURVE('',#223,#223,#128,.T.);
#191=EDGE_CURVE('',#224,#224,#129,.T.);
#192=EDGE_CURVE('',#225,#225,#130,.T.);
#193=EDGE_CURVE('',#226,#226,#131,.T.);
#194=B_SPLINE_CURVE_WITH_KNOTS('',3,(#289,#290,#291,#292,#293,#294,#295,
#296,#297,#298),.UNSPECIFIED.,.T.,.F.,(2,2,2,2,2,2,2),(-0.25,0.,0.25,0.5,
0.75,1.,1.25),.UNSPECIFIED.);
#195=FACE_BOUND('',#215,.T.);
#196=FACE_BOUND('',#144,.T.);
#197=FACE_BOUND('',#145,.T.);
#198=FACE_BOUND('',#146,.T.);
#199=FACE_BOUND('',#147,.T.);
#200=FACE_BOUND('',#148,.T.);
#201=FACE_BOUND('',#149,.T.);
#202=FACE_BOUND('',#150,.T.);
#203=FACE_BOUND('',#151,.T.);
#204=FACE_BOUND('',#152,.T.);
#205=FACE_BOUND('',#153,.T.);
#206=FACE_BOUND('',#154,.T.);
#207=FACE_BOUND('',#155,.T.);
#208=FACE_BOUND('',#156,.T.);
#209=FACE_BOUND('',#158,.T.);
#210=FACE_BOUND('',#159,.T.);
#211=FACE_BOUND('',#160,.T.);
#212=FACE_BOUND('',#161,.T.);
#213=FACE_BOUND('',#162,.T.);
#214=FACE_BOUND('',#163,.T.);
#215=VERTEX_LOOP('',#216);
#216=VERTEX_POINT('',#288);
#217=VERTEX_POINT('',#299);
#218=VERTEX_POINT('',#302);
#219=VERTEX_POINT('',#305);
#220=VERTEX_POINT('',#328);
#221=VERTEX_POINT('',#331);
#222=VERTEX_POINT('',#334);
#223=VERTEX_POINT('',#337);
#224=VERTEX_POINT('',#340);
#225=VERTEX_POINT('',#343);
#226=VERTEX_POINT('',#346);
#227=AXIS2_PLACEMENT_3D('',#287,#247,#248);
#228=AXIS2_PLACEMENT_3D('',#300,#249,#250);
#229=AXIS2_PLACEMENT_3D('',#301,#251,#252);
#230=AXIS2_PLACEMENT_3D('',#303,#253,#254);
#231=AXIS2_PLACEMENT_3D('',#304,#255,#256);
#232=AXIS2_PLACEMENT_3D('',#327,#257,#258);
#233=AXIS2_PLACEMENT_3D('',#329,#259,#260);
#234=AXIS2_PLACEMENT_3D('',#330,#261,#262);
#235=AXIS2_PLACEMENT_3D('',#332,#263,#264);
#236=AXIS2_PLACEMENT_3D('',#333,#265,#266);
#237=AXIS2_PLACEMENT_3D('',#335,#267,#268);
#238=AXIS2_PLACEMENT_3D('',#336,#269,#270);
#239=AXIS2_PLACEMENT_3D('',#338,#271,#272);
#240=AXIS2_PLACEMENT_3D('',#339,#273,#274);
#241=AXIS2_PLACEMENT_3D('',#341,#275,#276);
#242=AXIS2_PLACEMENT_3D('',#342,#277,#278);
#243=AXIS2_PLACEMENT_3D('',#344,#279,#280);
#244=AXIS2_PLACEMENT_3D('',#345,#281,#282);
#245=AXIS2_PLACEMENT_3D('',#347,#283,#284);
#246=AXIS2_PLACEMENT_3D('',#348,#285,#286);
#247=DIRECTION('',(0.,0.,1.));
#248=DIRECTION('',(1.,0.,0.));
#249=DIRECTION('',(1.38777895984107E-15,0.999999999999999,-1.63623776649019E-15));
#250=DIRECTION('',(1.,0.,0.));
#251=DIRECTION('',(-6.73578410624209E-16,1.,-2.69232006942143E-16));
#252=DIRECTION('',(1.,6.99485272571293E-16,0.));
#253=DIRECTION('',(2.0725489557668E-16,1.,-1.07692802776857E-15));
#254=DIRECTION('',(1.,0.,0.));
#255=DIRECTION('',(0.,1.,0.));
#256=DIRECTION('',(1.,0.,0.));
#257=DIRECTION('',(5.91103344446569E-16,1.,-1.80794959566333E-32));
#258=DIRECTION('',(1.,-4.05156072523385E-16,0.));
#259=DIRECTION('',(0.,-1.,0.));
#260=DIRECTION('',(1.,-1.25085278379572E-17,0.));
#261=DIRECTION('',(0.,-1.,0.));
#262=DIRECTION('',(1.,0.,7.1209180272998E-16));
#263=DIRECTION('',(0.,-1.,1.6980279682078E-16));
#264=DIRECTION('',(1.,-1.0661049136557E-16,2.76423238051077E-32));
#265=DIRECTION('',(-6.25964416140483E-17,1.,1.0842021724855E-16));
#266=DIRECTION('',(1.,0.,0.));
#267=DIRECTION('',(6.25964416140483E-17,1.,1.0842021724855E-16));
#268=DIRECTION('',(1.,0.,0.));
#269=DIRECTION('',(-1.97689285011602E-16,1.,1.26919443968735E-32));
#270=DIRECTION('',(1.,3.33600668457078E-16,-9.8844642505801E-17));
#271=DIRECTION('',(0.,-1.,0.));
#272=DIRECTION('',(0.,0.,1.));
#273=DIRECTION('',(-2.12967629753345E-16,1.,-1.73760455529813E-16));
#274=DIRECTION('',(1.,3.85494105772624E-16,-7.83220688819985E-17));
#275=DIRECTION('',(0.,-1.,0.));
#276=DIRECTION('',(0.,0.,1.));
#277=DIRECTION('',(5.01603228873245E-17,-1.,8.68802277649061E-17));
#278=DIRECTION('',(1.,0.,7.04898619937987E-16));
#279=DIRECTION('',(0.,1.,0.));
#280=DIRECTION('',(1.,0.,0.));
#281=DIRECTION('',(0.,-1.,-1.34135232030103E-16));
#282=DIRECTION('',(0.,0.,-1.));
#283=DIRECTION('',(0.,-1.,-1.34135232030103E-16));
#284=DIRECTION('',(1.,-1.3808936788655E-16,-7.88259232546855E-17));
#285=DIRECTION('',(-1.10559629922072E-16,1.,1.95141374616952E-16));
#286=DIRECTION('',(1.,0.,-6.49380523890044E-17));
#287=CARTESIAN_POINT('',(0.,0.,0.));
#288=CARTESIAN_POINT('',(-1.56257522758097,19.5654239972947,0.));
#289=CARTESIAN_POINT('',(-0.322575293479494,18.3154239972947,0.654498385050518));
#290=CARTESIAN_POINT('',(-0.322575293479493,18.3154239972947,-0.654498385050518));
#291=CARTESIAN_POINT('',(-0.918076747146407,18.3154239972947,-1.24999983871743));
#292=CARTESIAN_POINT('',(-2.22707351724744,18.3154239972947,-1.24999983871743));
#293=CARTESIAN_POINT('',(-2.82257497091436,18.3154239972947,-0.654498385050516));
#294=CARTESIAN_POINT('',(-2.82257497091435,18.3154239972947,0.654498385050521));
#295=CARTESIAN_POINT('',(-2.22707351724744,18.3154239972947,1.24999983871743));
#296=CARTESIAN_POINT('',(-0.918076747146402,18.3154239972947,1.24999983871743));
#297=CARTESIAN_POINT('',(-0.322575293479494,18.3154239972947,0.654498385050518));
#298=CARTESIAN_POINT('',(-0.322575293479493,18.3154239972947,-0.654498385050518));
#299=CARTESIAN_POINT('',(-0.322575260530228,18.3154239972947,-2.15396875896995E-15));
#300=CARTESIAN_POINT('',(-1.57257513219693,18.31542422372,0.));
#301=CARTESIAN_POINT('',(-1.56257522758097,5.17418140995187,0.));
#302=CARTESIAN_POINT('',(-0.322575227580965,5.17418140995187,0.));
#303=CARTESIAN_POINT('',(-1.56257522758097,5.17418140995187,7.07608623100776E-15));
#304=CARTESIAN_POINT('',(-1.56257522758097,4.74116870805965,0.));
#305=CARTESIAN_POINT('',(-0.072575227580965,4.74116870805965,0.));
#306=CARTESIAN_POINT('',(-0.0725752275809661,4.74116870805965,0.));
#307=CARTESIAN_POINT('',(-0.322575227580966,4.88550627535706,0.));
#308=CARTESIAN_POINT('',(-0.322575227580966,5.17418140995187,0.));
#309=CARTESIAN_POINT('',(-0.0725752275809661,4.74116870805965,-2.58075570327762));
#310=CARTESIAN_POINT('',(-0.322575227580965,4.88550627535704,-2.1477430013854));
#311=CARTESIAN_POINT('',(-0.322575227580966,5.17418140995187,-2.1477430013854));
#312=CARTESIAN_POINT('',(-2.30757522758096,4.74116870805965,-1.29037785163881));
#313=CARTESIAN_POINT('',(-2.18257522758097,4.88550627535706,-1.0738715006927));
#314=CARTESIAN_POINT('',(-2.18257522758096,5.17418140995187,-1.0738715006927));
#315=CARTESIAN_POINT('',(-4.54257522758096,4.74116870805965,-1.95156391047391E-15));
#316=CARTESIAN_POINT('',(-4.04257522758095,4.88550627535704,-1.62412030133399E-15));
#317=CARTESIAN_POINT('',(-4.04257522758096,5.17418140995187,-1.62412030133399E-15));
#318=CARTESIAN_POINT('',(-2.30757522758097,4.74116870805965,1.29037785163881));
#319=CARTESIAN_POINT('',(-2.18257522758097,4.88550627535706,1.0738715006927));
#320=CARTESIAN_POINT('',(-2.18257522758096,5.17418140995187,1.0738715006927));
#321=CARTESIAN_POINT('',(-0.0725752275809691,4.74116870805965,2.58075570327762));
#322=CARTESIAN_POINT('',(-0.322575227580968,4.88550627535704,2.1477430013854));
#323=CARTESIAN_POINT('',(-0.322575227580968,5.17418140995187,2.1477430013854));
#324=CARTESIAN_POINT('',(-0.0725752275809661,4.74116870805965,0.));
#325=CARTESIAN_POINT('',(-0.322575227580966,4.88550627535706,0.));
#326=CARTESIAN_POINT('',(-0.322575227580966,5.17418140995187,0.));
#327=CARTESIAN_POINT('',(-1.56257522758097,4.36542399729471,0.));
#328=CARTESIAN_POINT('',(0.578233702139175,4.36542399729471,0.));
#329=CARTESIAN_POINT('',(-1.56257522758097,4.74116870805965,0.));
#330=CARTESIAN_POINT('',(-1.56257522758097,4.06542399729471,-1.60220655614246E-15));
#331=CARTESIAN_POINT('',(0.687424772419035,4.06542399729471,0.));
#332=CARTESIAN_POINT('',(-1.56257522758097,4.36542399729471,-2.5470419523117E-17));
#333=CARTESIAN_POINT('',(-1.56257522758097,2.06542399729471,0.));
#334=CARTESIAN_POINT('',(0.687424772419035,2.06542399729471,0.));
#335=CARTESIAN_POINT('',(-1.56257522758097,2.06542399729471,-1.0842021724855E-16));
#336=CARTESIAN_POINT('',(-1.56257522758097,2.06542399729471,1.28498035257541E-16));
#337=CARTESIAN_POINT('',(-0.262575227580965,2.06542399729471,-7.22223729145213E-32));
#338=CARTESIAN_POINT('',(0.912424772419036,2.06542399729471,-2.475));
#339=CARTESIAN_POINT('',(-1.56257522758097,-5.43457600270529,1.76224654984497E-16));
#340=CARTESIAN_POINT('',(0.687424772419035,-5.43457600270529,-1.20370621524202E-31));
#341=CARTESIAN_POINT('',(0.912424772419035,-5.43457600270529,-2.475));
#342=CARTESIAN_POINT('',(-1.56257522758097,-3.08305875843544,-1.58602189486047E-15));
#343=CARTESIAN_POINT('',(0.68742477241903,-3.08305875843544,-4.42963887209064E-30));
#344=CARTESIAN_POINT('',(-1.56257522758097,-5.43457600270529,0.));
#345=CARTESIAN_POINT('',(-1.56257522758097,-2.53457600270529,1.96235061576138E-16));
#346=CARTESIAN_POINT('',(-1.56257522758097,-2.53457600270529,-1.3));
#347=CARTESIAN_POINT('',(-1.56257522758097,-2.6789135700027,1.7687430849604E-16));
#348=CARTESIAN_POINT('',(-1.56257522758097,-2.10156330081307,-3.22156346576359E-16));
#349=MECHANICAL_DESIGN_GEOMETRIC_PRESENTATION_REPRESENTATION('',(#36,#23,
#24,#25,#26,#27,#28,#29,#30,#31,#32,#33),#350);
#350=(
GEOMETRIC_REPRESENTATION_CONTEXT(3)
GLOBAL_UNCERTAINTY_ASSIGNED_CONTEXT((#351))
GLOBAL_UNIT_ASSIGNED_CONTEXT((#357,#353,#352))
REPRESENTATION_CONTEXT('n 01 025 0035 x','TOP_LEVEL_ASSEMBLY_PART')
);
#351=UNCERTAINTY_MEASURE_WITH_UNIT(LENGTH_MEASURE(0.0508),#357,
'DISTANCE_ACCURACY_VALUE','Maximum Tolerance applied to model');
#352=(
NAMED_UNIT(*)
SI_UNIT($,.STERADIAN.)
SOLID_ANGLE_UNIT()
);
#353=(
CONVERSION_BASED_UNIT('DEGREE',#355)
NAMED_UNIT(#354)
PLANE_ANGLE_UNIT()
);
#354=DIMENSIONAL_EXPONENTS(0.,0.,0.,0.,0.,0.,0.);
#355=PLANE_ANGLE_MEASURE_WITH_UNIT(PLANE_ANGLE_MEASURE(0.0174532925),#356);
#356=(
NAMED_UNIT(*)
PLANE_ANGLE_UNIT()
SI_UNIT($,.RADIAN.)
);
#357=(
LENGTH_UNIT()
NAMED_UNIT(*)
SI_UNIT(.MILLI.,.METRE.)
);
ENDSEC;
END-ISO-10303-21;
