ISO-10303-21;
HEADER;
/* Generated by software containing ST-Developer
 * from STEP Tools, Inc. (www.steptools.com) 
 */
/* OPTION: using custom schema-name function */

FILE_DESCRIPTION(
/* description */ (''),
/* implementation_level */ '2;1');

FILE_NAME(
/* name */ 'n 01 025 003x xnxc001-02.stp',
/* time_stamp */ '2021-04-20T11:20:38+02:00',
/* author */ (''),
/* organization */ (''),
/* preprocessor_version */ 'ST-DEVELOPER v16.7',
/* originating_system */ 'SIEMENS PLM Software NX 12.0',
/* authorisation */ '');

FILE_SCHEMA (('AUTOMOTIVE_DESIGN { 1 0 10303 214 3 1 1 1 }'));
ENDSEC;

DATA;
#10=SHAPE_REPRESENTATION_RELATIONSHIP('None',
'relationship between n 01 025 003x xnxc001-02-None and n 01 025 003x 
xnxc001-02-None',#22,#11);
#11=ADVANCED_BREP_SHAPE_REPRESENTATION('n 01 025 003x xnxc001-02-None',
(#32),#249);
#12=SHAPE_DEFINITION_REPRESENTATION(#13,#22);
#13=PRODUCT_DEFINITION_SHAPE('','',#14);
#14=PRODUCT_DEFINITION(' ','',#16,#15);
#15=PRODUCT_DEFINITION_CONTEXT('part definition',#21,'design');
#16=PRODUCT_DEFINITION_FORMATION_WITH_SPECIFIED_SOURCE(' ',' ',#18,
 .NOT_KNOWN.);
#17=PRODUCT_RELATED_PRODUCT_CATEGORY('part','',(#18));
#18=PRODUCT('n 01 025 003x xnxc001-02','n 01 025 003x xnxc001-02',' ',(#19));
#19=PRODUCT_CONTEXT(' ',#21,'mechanical');
#20=APPLICATION_PROTOCOL_DEFINITION('international standard',
'automotive_design',2010,#21);
#21=APPLICATION_CONTEXT(
'core data for automotive mechanical design processes');
#22=SHAPE_REPRESENTATION('n 01 025 003x xnxc001-02-None',(#149),#249);
#23=PRESENTATION_LAYER_ASSIGNMENT('1','Layer 1',(#32));
#24=STYLED_ITEM('',(#25),#32);
#25=PRESENTATION_STYLE_ASSIGNMENT((#26));
#26=SURFACE_STYLE_USAGE(.BOTH.,#27);
#27=SURFACE_SIDE_STYLE('',(#28));
#28=SURFACE_STYLE_FILL_AREA(#29);
#29=FILL_AREA_STYLE('',(#30));
#30=FILL_AREA_STYLE_COLOUR('',#31);
#31=COLOUR_RGB('Medium Steel',0.596063172350652,0.666666666666667,0.686259250782025);
#32=MANIFOLD_SOLID_BREP('',#33);
#33=CLOSED_SHELL('',(#44,#45,#46,#47,#48,#49,#50,#51,#52,#53,#54));
#34=SPHERICAL_SURFACE('',#170,1.25);
#35=FACE_OUTER_BOUND('',#97,.T.);
#36=CONICAL_SURFACE('',#156,0.9,59.);
#37=CONICAL_SURFACE('',#164,1.49,60.);
#38=VERTEX_LOOP('',#122);
#39=CYLINDRICAL_SURFACE('',#154,2.25);
#40=CYLINDRICAL_SURFACE('',#157,1.);
#41=CYLINDRICAL_SURFACE('',#162,1.25);
#42=CYLINDRICAL_SURFACE('',#166,2.25);
#43=CYLINDRICAL_SURFACE('',#169,1.5);
#44=ADVANCED_FACE('',(#58,#59),#55,.T.);
#45=ADVANCED_FACE('',(#60,#61),#39,.T.);
#46=ADVANCED_FACE('',(#62,#63),#36,.F.);
#47=ADVANCED_FACE('',(#64,#65),#40,.F.);
#48=ADVANCED_FACE('',(#66,#67),#56,.F.);
#49=ADVANCED_FACE('',(#68,#69),#41,.T.);
#50=ADVANCED_FACE('',(#70,#71),#37,.T.);
#51=ADVANCED_FACE('',(#72,#73),#42,.T.);
#52=ADVANCED_FACE('',(#74,#75),#57,.T.);
#53=ADVANCED_FACE('',(#76,#77),#43,.T.);
#54=ADVANCED_FACE('',(#35),#34,.T.);
#55=PLANE('',#152);
#56=PLANE('',#159);
#57=PLANE('',#168);
#58=FACE_BOUND('',#78,.T.);
#59=FACE_BOUND('',#79,.T.);
#60=FACE_BOUND('',#80,.T.);
#61=FACE_BOUND('',#81,.T.);
#62=FACE_BOUND('',#82,.T.);
#63=FACE_BOUND('',#38,.T.);
#64=FACE_BOUND('',#83,.T.);
#65=FACE_BOUND('',#84,.T.);
#66=FACE_BOUND('',#85,.T.);
#67=FACE_BOUND('',#86,.T.);
#68=FACE_BOUND('',#87,.T.);
#69=FACE_BOUND('',#88,.T.);
#70=FACE_BOUND('',#89,.T.);
#71=FACE_BOUND('',#90,.T.);
#72=FACE_BOUND('',#91,.T.);
#73=FACE_BOUND('',#92,.T.);
#74=FACE_BOUND('',#93,.T.);
#75=FACE_BOUND('',#94,.T.);
#76=FACE_BOUND('',#95,.T.);
#77=FACE_BOUND('',#96,.T.);
#78=EDGE_LOOP('',(#98));
#79=EDGE_LOOP('',(#99));
#80=EDGE_LOOP('',(#100));
#81=EDGE_LOOP('',(#101));
#82=EDGE_LOOP('',(#102));
#83=EDGE_LOOP('',(#103));
#84=EDGE_LOOP('',(#104));
#85=EDGE_LOOP('',(#105));
#86=EDGE_LOOP('',(#106));
#87=EDGE_LOOP('',(#107));
#88=EDGE_LOOP('',(#108));
#89=EDGE_LOOP('',(#109));
#90=EDGE_LOOP('',(#110));
#91=EDGE_LOOP('',(#111));
#92=EDGE_LOOP('',(#112));
#93=EDGE_LOOP('',(#113));
#94=EDGE_LOOP('',(#114));
#95=EDGE_LOOP('',(#115));
#96=EDGE_LOOP('',(#116));
#97=EDGE_LOOP('',(#117));
#98=ORIENTED_EDGE('',*,*,#129,.T.);
#99=ORIENTED_EDGE('',*,*,#130,.F.);
#100=ORIENTED_EDGE('',*,*,#130,.T.);
#101=ORIENTED_EDGE('',*,*,#131,.F.);
#102=ORIENTED_EDGE('',*,*,#132,.T.);
#103=ORIENTED_EDGE('',*,*,#129,.F.);
#104=ORIENTED_EDGE('',*,*,#132,.F.);
#105=ORIENTED_EDGE('',*,*,#133,.F.);
#106=ORIENTED_EDGE('',*,*,#131,.T.);
#107=ORIENTED_EDGE('',*,*,#134,.T.);
#108=ORIENTED_EDGE('',*,*,#135,.T.);
#109=ORIENTED_EDGE('',*,*,#135,.F.);
#110=ORIENTED_EDGE('',*,*,#136,.T.);
#111=ORIENTED_EDGE('',*,*,#136,.F.);
#112=ORIENTED_EDGE('',*,*,#137,.T.);
#113=ORIENTED_EDGE('',*,*,#138,.T.);
#114=ORIENTED_EDGE('',*,*,#137,.F.);
#115=ORIENTED_EDGE('',*,*,#133,.T.);
#116=ORIENTED_EDGE('',*,*,#138,.F.);
#117=ORIENTED_EDGE('',*,*,#134,.F.);
#118=VERTEX_POINT('',#217);
#119=VERTEX_POINT('',#219);
#120=VERTEX_POINT('',#222);
#121=VERTEX_POINT('',#225);
#122=VERTEX_POINT('',#226);
#123=VERTEX_POINT('',#230);
#124=VERTEX_POINT('',#233);
#125=VERTEX_POINT('',#235);
#126=VERTEX_POINT('',#238);
#127=VERTEX_POINT('',#241);
#128=VERTEX_POINT('',#244);
#129=EDGE_CURVE('',#118,#118,#139,.T.);
#130=EDGE_CURVE('',#119,#119,#140,.T.);
#131=EDGE_CURVE('',#120,#120,#141,.T.);
#132=EDGE_CURVE('',#121,#121,#142,.T.);
#133=EDGE_CURVE('',#123,#123,#143,.T.);
#134=EDGE_CURVE('',#124,#124,#144,.T.);
#135=EDGE_CURVE('',#125,#125,#145,.T.);
#136=EDGE_CURVE('',#126,#126,#146,.T.);
#137=EDGE_CURVE('',#127,#127,#147,.T.);
#138=EDGE_CURVE('',#128,#128,#148,.T.);
#139=CIRCLE('',#150,1.);
#140=CIRCLE('',#151,2.25);
#141=CIRCLE('',#153,2.25);
#142=CIRCLE('',#155,1.);
#143=CIRCLE('',#158,1.5);
#144=CIRCLE('',#160,1.25);
#145=CIRCLE('',#161,1.25);
#146=CIRCLE('',#163,2.25);
#147=CIRCLE('',#165,2.25);
#148=CIRCLE('',#167,1.5);
#149=AXIS2_PLACEMENT_3D('',#215,#171,#172);
#150=AXIS2_PLACEMENT_3D('',#216,#173,#174);
#151=AXIS2_PLACEMENT_3D('',#218,#175,#176);
#152=AXIS2_PLACEMENT_3D('',#220,#177,#178);
#153=AXIS2_PLACEMENT_3D('',#221,#179,#180);
#154=AXIS2_PLACEMENT_3D('',#223,#181,#182);
#155=AXIS2_PLACEMENT_3D('',#224,#183,#184);
#156=AXIS2_PLACEMENT_3D('',#227,#185,#186);
#157=AXIS2_PLACEMENT_3D('',#228,#187,#188);
#158=AXIS2_PLACEMENT_3D('',#229,#189,#190);
#159=AXIS2_PLACEMENT_3D('',#231,#191,#192);
#160=AXIS2_PLACEMENT_3D('',#232,#193,#194);
#161=AXIS2_PLACEMENT_3D('',#234,#195,#196);
#162=AXIS2_PLACEMENT_3D('',#236,#197,#198);
#163=AXIS2_PLACEMENT_3D('',#237,#199,#200);
#164=AXIS2_PLACEMENT_3D('',#239,#201,#202);
#165=AXIS2_PLACEMENT_3D('',#240,#203,#204);
#166=AXIS2_PLACEMENT_3D('',#242,#205,#206);
#167=AXIS2_PLACEMENT_3D('',#243,#207,#208);
#168=AXIS2_PLACEMENT_3D('',#245,#209,#210);
#169=AXIS2_PLACEMENT_3D('',#246,#211,#212);
#170=AXIS2_PLACEMENT_3D('',#247,#213,#214);
#171=DIRECTION('',(0.,0.,1.));
#172=DIRECTION('',(1.,0.,0.));
#173=DIRECTION('',(0.,1.,0.));
#174=DIRECTION('',(0.,0.,-1.));
#175=DIRECTION('',(0.,1.,0.));
#176=DIRECTION('',(0.,0.,1.));
#177=DIRECTION('',(0.,-1.,0.));
#178=DIRECTION('',(0.,0.,-1.));
#179=DIRECTION('',(0.,1.,0.));
#180=DIRECTION('',(0.,0.,1.));
#181=DIRECTION('',(0.,1.,0.));
#182=DIRECTION('',(0.,0.,1.));
#183=DIRECTION('',(0.,-1.,0.));
#184=DIRECTION('',(0.,0.,-1.));
#185=DIRECTION('',(0.,-1.,0.));
#186=DIRECTION('',(0.,-6.7714638051706E-18,-1.));
#187=DIRECTION('',(0.,1.,0.));
#188=DIRECTION('',(0.,0.,1.));
#189=DIRECTION('',(0.,1.,0.));
#190=DIRECTION('',(0.,0.,-1.));
#191=DIRECTION('',(0.,-1.,0.));
#192=DIRECTION('',(0.,0.,-1.));
#193=DIRECTION('',(0.,-1.,0.));
#194=DIRECTION('',(0.,0.,1.));
#195=DIRECTION('',(0.,1.,0.));
#196=DIRECTION('',(0.,0.,-1.));
#197=DIRECTION('',(0.,1.,0.));
#198=DIRECTION('',(0.,0.,1.));
#199=DIRECTION('',(0.,1.,0.));
#200=DIRECTION('',(0.,0.,-1.));
#201=DIRECTION('',(0.,-1.,0.));
#202=DIRECTION('',(0.,1.50102334055486E-17,-1.));
#203=DIRECTION('',(0.,1.,0.));
#204=DIRECTION('',(0.,0.,1.));
#205=DIRECTION('',(0.,1.,0.));
#206=DIRECTION('',(0.,0.,1.));
#207=DIRECTION('',(0.,1.,0.));
#208=DIRECTION('',(0.,0.,1.));
#209=DIRECTION('',(0.,-1.,0.));
#210=DIRECTION('',(0.,0.,-1.));
#211=DIRECTION('',(0.,1.,0.));
#212=DIRECTION('',(0.,0.,1.));
#213=DIRECTION('',(0.,1.,6.12323399573677E-17));
#214=DIRECTION('',(0.,0.,1.));
#215=CARTESIAN_POINT('',(0.,0.,0.));
#216=CARTESIAN_POINT('',(-39.,-7.5,2.16840434497101E-16));
#217=CARTESIAN_POINT('',(-39.,-7.5,-1.));
#218=CARTESIAN_POINT('',(-39.,-7.5,2.16840434497101E-16));
#219=CARTESIAN_POINT('',(-39.,-7.5,2.25));
#220=CARTESIAN_POINT('',(-39.,-7.5,2.25));
#221=CARTESIAN_POINT('',(-39.,-4.6,2.16840434497101E-16));
#222=CARTESIAN_POINT('',(-39.,-4.6,2.25));
#223=CARTESIAN_POINT('',(-39.,-7.5,2.16840434497101E-16));
#224=CARTESIAN_POINT('',(-39.,0.0399139380972443,2.16840434497101E-16));
#225=CARTESIAN_POINT('',(-39.,0.0399139380972443,-1.));
#226=CARTESIAN_POINT('',(-39.,0.640774557124805,2.16840434497101E-16));
#227=CARTESIAN_POINT('',(-39.,0.1,2.16840434497101E-16));
#228=CARTESIAN_POINT('',(-39.,-7.5,2.16840434497101E-16));
#229=CARTESIAN_POINT('',(-39.,-4.6,2.16840434497101E-16));
#230=CARTESIAN_POINT('',(-39.,-4.6,-1.5));
#231=CARTESIAN_POINT('',(-39.,-4.6,2.25));
#232=CARTESIAN_POINT('',(-39.,16.25,2.16840434497101E-16));
#233=CARTESIAN_POINT('',(-39.,16.25,1.25));
#234=CARTESIAN_POINT('',(-39.,2.51430877537044,2.16840434497101E-16));
#235=CARTESIAN_POINT('',(-39.,2.51430877537044,-1.25));
#236=CARTESIAN_POINT('',(-39.,-7.5,2.16840434497101E-16));
#237=CARTESIAN_POINT('',(-39.,1.93695850618082,2.16840434497101E-16));
#238=CARTESIAN_POINT('',(-39.,1.93695850618082,-2.25));
#239=CARTESIAN_POINT('',(-39.,2.37574471076493,2.16840434497101E-16));
#240=CARTESIAN_POINT('',(-39.,0.,2.16840434497101E-16));
#241=CARTESIAN_POINT('',(-39.,0.,2.25));
#242=CARTESIAN_POINT('',(-39.,-7.5,2.16840434497101E-16));
#243=CARTESIAN_POINT('',(-39.,0.,2.16840434497101E-16));
#244=CARTESIAN_POINT('',(-39.,0.,1.5));
#245=CARTESIAN_POINT('',(-39.,0.,2.25));
#246=CARTESIAN_POINT('',(-39.,-7.5,2.16840434497101E-16));
#247=CARTESIAN_POINT('',(-39.,16.25,2.16840434497101E-16));
#248=MECHANICAL_DESIGN_GEOMETRIC_PRESENTATION_REPRESENTATION('',(#24),#249);
#249=(
GEOMETRIC_REPRESENTATION_CONTEXT(3)
GLOBAL_UNCERTAINTY_ASSIGNED_CONTEXT((#250))
GLOBAL_UNIT_ASSIGNED_CONTEXT((#256,#252,#251))
REPRESENTATION_CONTEXT('n 01 025 003x xnxc001-02',
'TOP_LEVEL_ASSEMBLY_PART')
);
#250=UNCERTAINTY_MEASURE_WITH_UNIT(LENGTH_MEASURE(2.E-5),#256,
'DISTANCE_ACCURACY_VALUE','Maximum Tolerance applied to model');
#251=(
NAMED_UNIT(*)
SI_UNIT($,.STERADIAN.)
SOLID_ANGLE_UNIT()
);
#252=(
CONVERSION_BASED_UNIT('DEGREE',#254)
NAMED_UNIT(#253)
PLANE_ANGLE_UNIT()
);
#253=DIMENSIONAL_EXPONENTS(0.,0.,0.,0.,0.,0.,0.);
#254=PLANE_ANGLE_MEASURE_WITH_UNIT(PLANE_ANGLE_MEASURE(0.0174532925),#255);
#255=(
NAMED_UNIT(*)
PLANE_ANGLE_UNIT()
SI_UNIT($,.RADIAN.)
);
#256=(
LENGTH_UNIT()
NAMED_UNIT(*)
SI_UNIT(.MILLI.,.METRE.)
);
ENDSEC;
END-ISO-10303-21;
