ISO-10303-21;
HEADER;
/* Generated by software containing ST-Developer
 * from STEP Tools, Inc. (www.steptools.com) 
 */
/* OPTION: using custom schema-name function */

FILE_DESCRIPTION(
/* description */ (''),
/* implementation_level */ '2;1');

FILE_NAME(
/* name */ 'n 01 025 0036 x.stp',
/* time_stamp */ '2018-09-25T11:23:21+02:00',
/* author */ (''),
/* organization */ (''),
/* preprocessor_version */ 'ST-DEVELOPER v16',
/* originating_system */ 'SIEMENS PLM Software NX 11.0',
/* authorisation */ '');

FILE_SCHEMA (('AUTOMOTIVE_DESIGN { 1 0 10303 214 3 1 1 1 }'));
ENDSEC;

DATA;
#10=SHAPE_REPRESENTATION_RELATIONSHIP('None',
'relationship between n 01 025 0036nxm001-03-None and n 01 025 0036nxm
001-03-None',#22,#11);
#11=ADVANCED_BREP_SHAPE_REPRESENTATION('n 01 025 0036nxm001-03-None',(#132),
#432);
#12=SHAPE_DEFINITION_REPRESENTATION(#13,#22);
#13=PRODUCT_DEFINITION_SHAPE('','',#14);
#14=PRODUCT_DEFINITION(' ','',#16,#15);
#15=PRODUCT_DEFINITION_CONTEXT('part definition',#21,'design');
#16=PRODUCT_DEFINITION_FORMATION_WITH_SPECIFIED_SOURCE(' ',' ',#18,
 .NOT_KNOWN.);
#17=PRODUCT_RELATED_PRODUCT_CATEGORY('part','',(#18));
#18=PRODUCT('n 01 025 0036nxm001-03','n 01 025 0036nxm001-03',' ',(#19));
#19=PRODUCT_CONTEXT(' ',#21,'mechanical');
#20=APPLICATION_PROTOCOL_DEFINITION('international standard',
'automotive_design',2010,#21);
#21=APPLICATION_CONTEXT(
'core data for automotive mechanical design processes');
#22=SHAPE_REPRESENTATION('n 01 025 0036nxm001-03-None',(#282),#432);
#23=OVER_RIDING_STYLED_ITEM('',(#42),#174,#40);
#24=OVER_RIDING_STYLED_ITEM('',(#43),#175,#40);
#25=OVER_RIDING_STYLED_ITEM('',(#44),#176,#40);
#26=OVER_RIDING_STYLED_ITEM('',(#45),#177,#40);
#27=OVER_RIDING_STYLED_ITEM('',(#46),#178,#40);
#28=OVER_RIDING_STYLED_ITEM('',(#47),#179,#40);
#29=OVER_RIDING_STYLED_ITEM('',(#48),#180,#40);
#30=OVER_RIDING_STYLED_ITEM('',(#49),#181,#40);
#31=OVER_RIDING_STYLED_ITEM('',(#50),#182,#40);
#32=OVER_RIDING_STYLED_ITEM('',(#51),#183,#40);
#33=OVER_RIDING_STYLED_ITEM('',(#52),#184,#40);
#34=OVER_RIDING_STYLED_ITEM('',(#53),#185,#40);
#35=OVER_RIDING_STYLED_ITEM('',(#54),#186,#40);
#36=OVER_RIDING_STYLED_ITEM('',(#55),#187,#40);
#37=DRAUGHTING_PRE_DEFINED_COLOUR('red');
#38=DRAUGHTING_PRE_DEFINED_COLOUR('magenta');
#39=PRESENTATION_LAYER_ASSIGNMENT('1','Layer 1',(#132));
#40=STYLED_ITEM('',(#41),#132);
#41=PRESENTATION_STYLE_ASSIGNMENT((#56));
#42=PRESENTATION_STYLE_ASSIGNMENT((#57));
#43=PRESENTATION_STYLE_ASSIGNMENT((#58));
#44=PRESENTATION_STYLE_ASSIGNMENT((#59));
#45=PRESENTATION_STYLE_ASSIGNMENT((#60));
#46=PRESENTATION_STYLE_ASSIGNMENT((#61));
#47=PRESENTATION_STYLE_ASSIGNMENT((#62));
#48=PRESENTATION_STYLE_ASSIGNMENT((#63));
#49=PRESENTATION_STYLE_ASSIGNMENT((#64));
#50=PRESENTATION_STYLE_ASSIGNMENT((#65));
#51=PRESENTATION_STYLE_ASSIGNMENT((#66));
#52=PRESENTATION_STYLE_ASSIGNMENT((#67));
#53=PRESENTATION_STYLE_ASSIGNMENT((#68));
#54=PRESENTATION_STYLE_ASSIGNMENT((#69));
#55=PRESENTATION_STYLE_ASSIGNMENT((#70));
#56=SURFACE_STYLE_USAGE(.BOTH.,#71);
#57=SURFACE_STYLE_USAGE(.BOTH.,#72);
#58=SURFACE_STYLE_USAGE(.BOTH.,#73);
#59=SURFACE_STYLE_USAGE(.BOTH.,#74);
#60=SURFACE_STYLE_USAGE(.BOTH.,#75);
#61=SURFACE_STYLE_USAGE(.BOTH.,#76);
#62=SURFACE_STYLE_USAGE(.BOTH.,#77);
#63=SURFACE_STYLE_USAGE(.BOTH.,#78);
#64=SURFACE_STYLE_USAGE(.BOTH.,#79);
#65=SURFACE_STYLE_USAGE(.BOTH.,#80);
#66=SURFACE_STYLE_USAGE(.BOTH.,#81);
#67=SURFACE_STYLE_USAGE(.BOTH.,#82);
#68=SURFACE_STYLE_USAGE(.BOTH.,#83);
#69=SURFACE_STYLE_USAGE(.BOTH.,#84);
#70=SURFACE_STYLE_USAGE(.BOTH.,#85);
#71=SURFACE_SIDE_STYLE('',(#86));
#72=SURFACE_SIDE_STYLE('',(#87));
#73=SURFACE_SIDE_STYLE('',(#88));
#74=SURFACE_SIDE_STYLE('',(#89));
#75=SURFACE_SIDE_STYLE('',(#90));
#76=SURFACE_SIDE_STYLE('',(#91));
#77=SURFACE_SIDE_STYLE('',(#92));
#78=SURFACE_SIDE_STYLE('',(#93));
#79=SURFACE_SIDE_STYLE('',(#94));
#80=SURFACE_SIDE_STYLE('',(#95));
#81=SURFACE_SIDE_STYLE('',(#96));
#82=SURFACE_SIDE_STYLE('',(#97));
#83=SURFACE_SIDE_STYLE('',(#98));
#84=SURFACE_SIDE_STYLE('',(#99));
#85=SURFACE_SIDE_STYLE('',(#100));
#86=SURFACE_STYLE_FILL_AREA(#101);
#87=SURFACE_STYLE_FILL_AREA(#102);
#88=SURFACE_STYLE_FILL_AREA(#103);
#89=SURFACE_STYLE_FILL_AREA(#104);
#90=SURFACE_STYLE_FILL_AREA(#105);
#91=SURFACE_STYLE_FILL_AREA(#106);
#92=SURFACE_STYLE_FILL_AREA(#107);
#93=SURFACE_STYLE_FILL_AREA(#108);
#94=SURFACE_STYLE_FILL_AREA(#109);
#95=SURFACE_STYLE_FILL_AREA(#110);
#96=SURFACE_STYLE_FILL_AREA(#111);
#97=SURFACE_STYLE_FILL_AREA(#112);
#98=SURFACE_STYLE_FILL_AREA(#113);
#99=SURFACE_STYLE_FILL_AREA(#114);
#100=SURFACE_STYLE_FILL_AREA(#115);
#101=FILL_AREA_STYLE('',(#116));
#102=FILL_AREA_STYLE('',(#117));
#103=FILL_AREA_STYLE('',(#118));
#104=FILL_AREA_STYLE('',(#119));
#105=FILL_AREA_STYLE('',(#120));
#106=FILL_AREA_STYLE('',(#121));
#107=FILL_AREA_STYLE('',(#122));
#108=FILL_AREA_STYLE('',(#123));
#109=FILL_AREA_STYLE('',(#124));
#110=FILL_AREA_STYLE('',(#125));
#111=FILL_AREA_STYLE('',(#126));
#112=FILL_AREA_STYLE('',(#127));
#113=FILL_AREA_STYLE('',(#128));
#114=FILL_AREA_STYLE('',(#129));
#115=FILL_AREA_STYLE('',(#130));
#116=FILL_AREA_STYLE_COLOUR('',#131);
#117=FILL_AREA_STYLE_COLOUR('',#37);
#118=FILL_AREA_STYLE_COLOUR('',#37);
#119=FILL_AREA_STYLE_COLOUR('',#37);
#120=FILL_AREA_STYLE_COLOUR('',#37);
#121=FILL_AREA_STYLE_COLOUR('',#37);
#122=FILL_AREA_STYLE_COLOUR('',#37);
#123=FILL_AREA_STYLE_COLOUR('',#38);
#124=FILL_AREA_STYLE_COLOUR('',#38);
#125=FILL_AREA_STYLE_COLOUR('',#37);
#126=FILL_AREA_STYLE_COLOUR('',#37);
#127=FILL_AREA_STYLE_COLOUR('',#37);
#128=FILL_AREA_STYLE_COLOUR('',#37);
#129=FILL_AREA_STYLE_COLOUR('',#37);
#130=FILL_AREA_STYLE_COLOUR('',#37);
#131=COLOUR_RGB('Mittleres Stahlblau',0.596063172350652,0.666666666666667,
0.686259250782025);
#132=MANIFOLD_SOLID_BREP('',#133);
#133=CLOSED_SHELL('',(#174,#175,#176,#177,#178,#179,#180,#181,#182,#183,
#184,#185,#186,#187));
#134=SPHERICAL_SURFACE('',#307,1.24999983871745);
#135=VERTEX_LOOP('',#256);
#136=B_SPLINE_CURVE_WITH_KNOTS('',3,(#417,#418,#419,#420,#421,#422,#423,
#424,#425,#426),.UNSPECIFIED.,.T.,.F.,(2,2,2,2,2,2,2),(-0.25,0.,0.25,0.5,
0.75,1.,1.25),.UNSPECIFIED.);
#137=(
BOUNDED_SURFACE()
B_SPLINE_SURFACE(2,2,((#396,#397,#398),(#399,#400,#401),(#402,#403,#404),
(#405,#406,#407),(#408,#409,#410),(#411,#412,#413),(#414,#415,#416)),
 .UNSPECIFIED.,.T.,.F.,.F.)
B_SPLINE_SURFACE_WITH_KNOTS((1,2,2,2,2,1),(3,3),(-0.333333333333334,0.,
0.333333333333333,0.666666666666666,1.,1.33333333333333),(0.,1.),
 .UNSPECIFIED.)
GEOMETRIC_REPRESENTATION_ITEM()
RATIONAL_B_SPLINE_SURFACE(((1.,0.866025403784439,1.),(0.5,0.43301270189222,
0.5),(1.,0.866025403784439,1.),(0.5,0.43301270189222,0.5),(1.,0.866025403784439,
1.),(0.5,0.43301270189222,0.5),(1.,0.866025403784439,1.)))
REPRESENTATION_ITEM('')
SURFACE()
);
#138=CONICAL_SURFACE('',#288,1.55,60.);
#139=CONICAL_SURFACE('',#296,2.1,45.);
#140=CONICAL_SURFACE('',#298,2.1,45.);
#141=CONICAL_SURFACE('',#302,2.14080892972014,19.9999999999997);
#142=CONICAL_SURFACE('',#304,1.49,60.);
#143=CYLINDRICAL_SURFACE('',#286,2.25);
#144=CYLINDRICAL_SURFACE('',#290,1.3);
#145=CYLINDRICAL_SURFACE('',#294,2.25);
#146=CYLINDRICAL_SURFACE('',#300,2.25);
#147=CYLINDRICAL_SURFACE('',#306,1.24);
#148=FACE_BOUND('',#192,.T.);
#149=FACE_BOUND('',#193,.T.);
#150=FACE_BOUND('',#194,.T.);
#151=FACE_BOUND('',#195,.T.);
#152=FACE_BOUND('',#196,.T.);
#153=FACE_BOUND('',#197,.T.);
#154=FACE_BOUND('',#198,.T.);
#155=FACE_BOUND('',#199,.T.);
#156=FACE_BOUND('',#200,.T.);
#157=FACE_BOUND('',#201,.T.);
#158=FACE_BOUND('',#202,.T.);
#159=FACE_BOUND('',#203,.T.);
#160=FACE_BOUND('',#204,.T.);
#161=FACE_BOUND('',#205,.T.);
#162=FACE_BOUND('',#206,.T.);
#163=FACE_BOUND('',#207,.T.);
#164=FACE_BOUND('',#208,.T.);
#165=FACE_BOUND('',#209,.T.);
#166=FACE_BOUND('',#210,.T.);
#167=FACE_BOUND('',#211,.T.);
#168=FACE_BOUND('',#212,.T.);
#169=FACE_BOUND('',#213,.T.);
#170=FACE_BOUND('',#214,.T.);
#171=FACE_BOUND('',#215,.T.);
#172=FACE_BOUND('',#135,.T.);
#173=FACE_BOUND('',#216,.T.);
#174=ADVANCED_FACE('',(#190),#188,.T.);
#175=ADVANCED_FACE('',(#148,#149),#143,.T.);
#176=ADVANCED_FACE('',(#150,#151),#138,.T.);
#177=ADVANCED_FACE('',(#152,#153),#144,.T.);
#178=ADVANCED_FACE('',(#154,#155),#189,.T.);
#179=ADVANCED_FACE('',(#156,#157),#145,.T.);
#180=ADVANCED_FACE('',(#158,#159),#139,.T.);
#181=ADVANCED_FACE('',(#160,#161),#140,.T.);
#182=ADVANCED_FACE('',(#162,#163),#146,.T.);
#183=ADVANCED_FACE('',(#164,#165),#141,.T.);
#184=ADVANCED_FACE('',(#166,#167),#142,.T.);
#185=ADVANCED_FACE('',(#168,#169),#137,.T.);
#186=ADVANCED_FACE('',(#170,#171),#147,.T.);
#187=ADVANCED_FACE('',(#172,#173),#134,.T.);
#188=PLANE('',#284);
#189=PLANE('',#292);
#190=FACE_OUTER_BOUND('',#191,.T.);
#191=EDGE_LOOP('',(#217));
#192=EDGE_LOOP('',(#218));
#193=EDGE_LOOP('',(#219));
#194=EDGE_LOOP('',(#220));
#195=EDGE_LOOP('',(#221));
#196=EDGE_LOOP('',(#222));
#197=EDGE_LOOP('',(#223));
#198=EDGE_LOOP('',(#224));
#199=EDGE_LOOP('',(#225));
#200=EDGE_LOOP('',(#226));
#201=EDGE_LOOP('',(#227));
#202=EDGE_LOOP('',(#228));
#203=EDGE_LOOP('',(#229));
#204=EDGE_LOOP('',(#230));
#205=EDGE_LOOP('',(#231));
#206=EDGE_LOOP('',(#232));
#207=EDGE_LOOP('',(#233));
#208=EDGE_LOOP('',(#234));
#209=EDGE_LOOP('',(#235));
#210=EDGE_LOOP('',(#236));
#211=EDGE_LOOP('',(#237));
#212=EDGE_LOOP('',(#238));
#213=EDGE_LOOP('',(#239));
#214=EDGE_LOOP('',(#240));
#215=EDGE_LOOP('',(#241));
#216=EDGE_LOOP('',(#242));
#217=ORIENTED_EDGE('',*,*,#257,.F.);
#218=ORIENTED_EDGE('',*,*,#258,.T.);
#219=ORIENTED_EDGE('',*,*,#257,.T.);
#220=ORIENTED_EDGE('',*,*,#259,.T.);
#221=ORIENTED_EDGE('',*,*,#258,.F.);
#222=ORIENTED_EDGE('',*,*,#260,.F.);
#223=ORIENTED_EDGE('',*,*,#259,.F.);
#224=ORIENTED_EDGE('',*,*,#260,.T.);
#225=ORIENTED_EDGE('',*,*,#261,.F.);
#226=ORIENTED_EDGE('',*,*,#261,.T.);
#227=ORIENTED_EDGE('',*,*,#262,.T.);
#228=ORIENTED_EDGE('',*,*,#262,.F.);
#229=ORIENTED_EDGE('',*,*,#263,.T.);
#230=ORIENTED_EDGE('',*,*,#263,.F.);
#231=ORIENTED_EDGE('',*,*,#264,.F.);
#232=ORIENTED_EDGE('',*,*,#265,.T.);
#233=ORIENTED_EDGE('',*,*,#264,.T.);
#234=ORIENTED_EDGE('',*,*,#266,.F.);
#235=ORIENTED_EDGE('',*,*,#265,.F.);
#236=ORIENTED_EDGE('',*,*,#267,.F.);
#237=ORIENTED_EDGE('',*,*,#266,.T.);
#238=ORIENTED_EDGE('',*,*,#268,.F.);
#239=ORIENTED_EDGE('',*,*,#267,.T.);
#240=ORIENTED_EDGE('',*,*,#269,.F.);
#241=ORIENTED_EDGE('',*,*,#268,.T.);
#242=ORIENTED_EDGE('',*,*,#269,.T.);
#243=VERTEX_POINT('',#362);
#244=VERTEX_POINT('',#365);
#245=VERTEX_POINT('',#368);
#246=VERTEX_POINT('',#371);
#247=VERTEX_POINT('',#374);
#248=VERTEX_POINT('',#377);
#249=VERTEX_POINT('',#380);
#250=VERTEX_POINT('',#383);
#251=VERTEX_POINT('',#386);
#252=VERTEX_POINT('',#389);
#253=VERTEX_POINT('',#392);
#254=VERTEX_POINT('',#395);
#255=VERTEX_POINT('',#427);
#256=VERTEX_POINT('',#429);
#257=EDGE_CURVE('',#243,#243,#270,.T.);
#258=EDGE_CURVE('',#244,#244,#271,.T.);
#259=EDGE_CURVE('',#245,#245,#272,.T.);
#260=EDGE_CURVE('',#246,#246,#273,.T.);
#261=EDGE_CURVE('',#247,#247,#274,.T.);
#262=EDGE_CURVE('',#248,#248,#275,.T.);
#263=EDGE_CURVE('',#249,#249,#276,.T.);
#264=EDGE_CURVE('',#250,#250,#277,.T.);
#265=EDGE_CURVE('',#251,#251,#278,.T.);
#266=EDGE_CURVE('',#252,#252,#279,.T.);
#267=EDGE_CURVE('',#253,#253,#280,.T.);
#268=EDGE_CURVE('',#254,#254,#281,.T.);
#269=EDGE_CURVE('',#255,#255,#136,.T.);
#270=CIRCLE('',#283,2.25);
#271=CIRCLE('',#285,2.25);
#272=CIRCLE('',#287,1.3);
#273=CIRCLE('',#289,1.3);
#274=CIRCLE('',#291,2.25);
#275=CIRCLE('',#293,2.25);
#276=CIRCLE('',#295,2.1);
#277=CIRCLE('',#297,2.25);
#278=CIRCLE('',#299,2.25);
#279=CIRCLE('',#301,2.14080892972014);
#280=CIRCLE('',#303,1.49);
#281=CIRCLE('',#305,1.24);
#282=AXIS2_PLACEMENT_3D('',#360,#308,#309);
#283=AXIS2_PLACEMENT_3D('',#361,#310,#311);
#284=AXIS2_PLACEMENT_3D('',#363,#312,#313);
#285=AXIS2_PLACEMENT_3D('',#364,#314,#315);
#286=AXIS2_PLACEMENT_3D('',#366,#316,#317);
#287=AXIS2_PLACEMENT_3D('',#367,#318,#319);
#288=AXIS2_PLACEMENT_3D('',#369,#320,#321);
#289=AXIS2_PLACEMENT_3D('',#370,#322,#323);
#290=AXIS2_PLACEMENT_3D('',#372,#324,#325);
#291=AXIS2_PLACEMENT_3D('',#373,#326,#327);
#292=AXIS2_PLACEMENT_3D('',#375,#328,#329);
#293=AXIS2_PLACEMENT_3D('',#376,#330,#331);
#294=AXIS2_PLACEMENT_3D('',#378,#332,#333);
#295=AXIS2_PLACEMENT_3D('',#379,#334,#335);
#296=AXIS2_PLACEMENT_3D('',#381,#336,#337);
#297=AXIS2_PLACEMENT_3D('',#382,#338,#339);
#298=AXIS2_PLACEMENT_3D('',#384,#340,#341);
#299=AXIS2_PLACEMENT_3D('',#385,#342,#343);
#300=AXIS2_PLACEMENT_3D('',#387,#344,#345);
#301=AXIS2_PLACEMENT_3D('',#388,#346,#347);
#302=AXIS2_PLACEMENT_3D('',#390,#348,#349);
#303=AXIS2_PLACEMENT_3D('',#391,#350,#351);
#304=AXIS2_PLACEMENT_3D('',#393,#352,#353);
#305=AXIS2_PLACEMENT_3D('',#394,#354,#355);
#306=AXIS2_PLACEMENT_3D('',#428,#356,#357);
#307=AXIS2_PLACEMENT_3D('',#430,#358,#359);
#308=DIRECTION('',(0.,0.,1.));
#309=DIRECTION('',(1.,0.,0.));
#310=DIRECTION('',(-2.12967629753345E-16,1.,-1.73760455529813E-16));
#311=DIRECTION('',(1.,3.85494105772624E-16,-7.83220688819985E-17));
#312=DIRECTION('',(0.,-1.,0.));
#313=DIRECTION('',(0.,0.,1.));
#314=DIRECTION('',(5.01603228873245E-17,-1.,8.68802277649061E-17));
#315=DIRECTION('',(1.,0.,7.04898619937987E-16));
#316=DIRECTION('',(0.,1.,0.));
#317=DIRECTION('',(1.,0.,0.));
#318=DIRECTION('',(0.,-1.,-1.34135232030103E-16));
#319=DIRECTION('',(0.,0.,-1.));
#320=DIRECTION('',(0.,-1.,-1.34135232030103E-16));
#321=DIRECTION('',(1.,-1.3808936788655E-16,-7.88259232546855E-17));
#322=DIRECTION('',(-1.97689285011602E-16,1.,1.26919443968735E-32));
#323=DIRECTION('',(1.,3.33600668457078E-16,-9.8844642505801E-17));
#324=DIRECTION('',(-1.10559629922072E-16,1.,1.95141374616952E-16));
#325=DIRECTION('',(1.,0.,-6.49380523890044E-17));
#326=DIRECTION('',(-6.25964416140483E-17,1.,1.0842021724855E-16));
#327=DIRECTION('',(1.,0.,0.));
#328=DIRECTION('',(0.,-1.,0.));
#329=DIRECTION('',(0.,0.,1.));
#330=DIRECTION('',(-7.91505231823187E-17,-1.,-4.64374290579822E-32));
#331=DIRECTION('',(1.,0.,5.54053662276231E-16));
#332=DIRECTION('',(6.25964416140483E-17,1.,1.0842021724855E-16));
#333=DIRECTION('',(1.,0.,0.));
#334=DIRECTION('',(9.32029852740275E-17,-1.,-1.32337824654219E-16));
#335=DIRECTION('',(1.,0.,7.63237187829498E-16));
#336=DIRECTION('',(0.,-1.,2.55548902780563E-16));
#337=DIRECTION('',(1.,8.09283729187863E-17,-7.26115564428503E-33));
#338=DIRECTION('',(0.,1.,0.));
#339=DIRECTION('',(1.,0.,0.));
#340=DIRECTION('',(0.,1.,0.));
#341=DIRECTION('',(1.,-1.40650915500564E-16,-8.18798515679155E-17));
#342=DIRECTION('',(0.,-1.,0.));
#343=DIRECTION('',(1.,0.,7.1209180272998E-16));
#344=DIRECTION('',(6.25964416140483E-17,1.,1.0842021724855E-16));
#345=DIRECTION('',(1.,0.,0.));
#346=DIRECTION('',(5.91103344446569E-16,1.,-1.80794959566333E-32));
#347=DIRECTION('',(1.,-4.05156072523385E-16,0.));
#348=DIRECTION('',(0.,-1.,1.6980279682078E-16));
#349=DIRECTION('',(1.,-1.0661049136557E-16,2.76423238051077E-32));
#350=DIRECTION('',(0.,1.,0.));
#351=DIRECTION('',(1.,0.,0.));
#352=DIRECTION('',(0.,-1.,0.));
#353=DIRECTION('',(1.,-1.25085278379572E-17,0.));
#354=DIRECTION('',(-6.73578410624209E-16,1.,-2.69232006942143E-16));
#355=DIRECTION('',(1.,6.99485272571293E-16,0.));
#356=DIRECTION('',(2.0725489557668E-16,1.,-1.07692802776857E-15));
#357=DIRECTION('',(1.,0.,0.));
#358=DIRECTION('',(-8.6736184990067E-16,1.,-1.63623776649019E-15));
#359=DIRECTION('',(1.,0.,0.));
#360=CARTESIAN_POINT('',(0.,0.,0.));
#361=CARTESIAN_POINT('',(-1.56257522758097,-5.43457600270529,1.76224654984497E-16));
#362=CARTESIAN_POINT('',(0.687424772419035,-5.43457600270529,-1.20370621524202E-31));
#363=CARTESIAN_POINT('',(0.912424772419035,-5.43457600270529,-2.475));
#364=CARTESIAN_POINT('',(-1.56257522758097,-3.08305875843544,-1.58602189486047E-15));
#365=CARTESIAN_POINT('',(0.68742477241903,-3.08305875843544,-4.42963887209064E-30));
#366=CARTESIAN_POINT('',(-1.56257522758097,-5.43457600270529,0.));
#367=CARTESIAN_POINT('',(-1.56257522758097,-2.53457600270529,1.96235061576138E-16));
#368=CARTESIAN_POINT('',(-1.56257522758097,-2.53457600270529,-1.3));
#369=CARTESIAN_POINT('',(-1.56257522758097,-2.6789135700027,1.7687430849604E-16));
#370=CARTESIAN_POINT('',(-1.56257522758097,2.06542399729471,1.28498035257541E-16));
#371=CARTESIAN_POINT('',(-0.262575227580965,2.06542399729471,-7.22223729145213E-32));
#372=CARTESIAN_POINT('',(-1.56257522758097,-2.10156330081307,-3.22156346576359E-16));
#373=CARTESIAN_POINT('',(-1.56257522758097,2.06542399729471,0.));
#374=CARTESIAN_POINT('',(0.687424772419035,2.06542399729471,0.));
#375=CARTESIAN_POINT('',(0.912424772419036,2.06542399729471,-2.475));
#376=CARTESIAN_POINT('',(-1.56257522758097,2.11542399729471,-1.26778782709627E-15));
#377=CARTESIAN_POINT('',(0.687424772419035,2.11542399729471,-2.11670869747464E-17));
#378=CARTESIAN_POINT('',(-1.56257522758097,2.06542399729471,-1.0842021724855E-16));
#379=CARTESIAN_POINT('',(-1.56257522758097,2.26542399729471,-1.60368415162368E-15));
#380=CARTESIAN_POINT('',(0.537424772419035,2.26542399729471,-8.86057181734256E-19));
#381=CARTESIAN_POINT('',(-1.56257522758097,2.26542399729471,-4.03332546832882E-17));
#382=CARTESIAN_POINT('',(-1.56257522758097,2.41542399729471,-8.86057181735738E-19));
#383=CARTESIAN_POINT('',(0.687424772419035,2.41542399729471,-8.86057181735738E-19));
#384=CARTESIAN_POINT('',(-1.56257522758097,2.26542399729471,1.7720261997848E-16));
#385=CARTESIAN_POINT('',(-1.56257522758097,4.06542399729471,-1.60220655614246E-15));
#386=CARTESIAN_POINT('',(0.687424772419035,4.06542399729471,0.));
#387=CARTESIAN_POINT('',(-1.56257522758097,2.06542399729471,-1.0842021724855E-16));
#388=CARTESIAN_POINT('',(-1.56257522758097,4.36542399729471,0.));
#389=CARTESIAN_POINT('',(0.578233702139175,4.36542399729471,0.));
#390=CARTESIAN_POINT('',(-1.56257522758097,4.36542399729471,-2.5470419523117E-17));
#391=CARTESIAN_POINT('',(-1.56257522758097,4.74116870805965,0.));
#392=CARTESIAN_POINT('',(-0.072575227580965,4.74116870805965,0.));
#393=CARTESIAN_POINT('',(-1.56257522758097,4.74116870805965,0.));
#394=CARTESIAN_POINT('',(-1.56257522758097,5.17418140995187,0.));
#395=CARTESIAN_POINT('',(-0.322575227580965,5.17418140995187,0.));
#396=CARTESIAN_POINT('',(-0.0725752275809661,4.74116870805965,0.));
#397=CARTESIAN_POINT('',(-0.322575227580966,4.88550627535706,0.));
#398=CARTESIAN_POINT('',(-0.322575227580966,5.17418140995187,0.));
#399=CARTESIAN_POINT('',(-0.0725752275809661,4.74116870805965,-2.58075570327762));
#400=CARTESIAN_POINT('',(-0.322575227580965,4.88550627535704,-2.1477430013854));
#401=CARTESIAN_POINT('',(-0.322575227580966,5.17418140995187,-2.1477430013854));
#402=CARTESIAN_POINT('',(-2.30757522758096,4.74116870805965,-1.29037785163881));
#403=CARTESIAN_POINT('',(-2.18257522758097,4.88550627535706,-1.0738715006927));
#404=CARTESIAN_POINT('',(-2.18257522758096,5.17418140995187,-1.0738715006927));
#405=CARTESIAN_POINT('',(-4.54257522758096,4.74116870805965,-1.95156391047391E-15));
#406=CARTESIAN_POINT('',(-4.04257522758095,4.88550627535704,-1.62412030133399E-15));
#407=CARTESIAN_POINT('',(-4.04257522758096,5.17418140995187,-1.62412030133399E-15));
#408=CARTESIAN_POINT('',(-2.30757522758097,4.74116870805965,1.29037785163881));
#409=CARTESIAN_POINT('',(-2.18257522758097,4.88550627535706,1.0738715006927));
#410=CARTESIAN_POINT('',(-2.18257522758096,5.17418140995187,1.0738715006927));
#411=CARTESIAN_POINT('',(-0.0725752275809691,4.74116870805965,2.58075570327762));
#412=CARTESIAN_POINT('',(-0.322575227580968,4.88550627535704,2.1477430013854));
#413=CARTESIAN_POINT('',(-0.322575227580968,5.17418140995187,2.1477430013854));
#414=CARTESIAN_POINT('',(-0.0725752275809661,4.74116870805965,0.));
#415=CARTESIAN_POINT('',(-0.322575227580966,4.88550627535706,0.));
#416=CARTESIAN_POINT('',(-0.322575227580966,5.17418140995187,0.));
#417=CARTESIAN_POINT('',(-0.322575293479497,18.3154239972947,0.654498385050516));
#418=CARTESIAN_POINT('',(-0.322575293479497,18.3154239972947,-0.654498385050516));
#419=CARTESIAN_POINT('',(-0.918076747146409,18.3154239972947,-1.24999983871743));
#420=CARTESIAN_POINT('',(-2.22707351724744,18.3154239972947,-1.24999983871743));
#421=CARTESIAN_POINT('',(-2.82257497091436,18.3154239972947,-0.654498385050514));
#422=CARTESIAN_POINT('',(-2.82257497091435,18.3154239972947,0.654498385050519));
#423=CARTESIAN_POINT('',(-2.22707351724744,18.3154239972947,1.24999983871743));
#424=CARTESIAN_POINT('',(-0.918076747146404,18.3154239972947,1.24999983871743));
#425=CARTESIAN_POINT('',(-0.322575293479497,18.3154239972947,0.654498385050516));
#426=CARTESIAN_POINT('',(-0.322575293479497,18.3154239972947,-0.654498385050516));
#427=CARTESIAN_POINT('',(-0.32257526053023,18.3154239972947,-2.15396875896993E-15));
#428=CARTESIAN_POINT('',(-1.56257522758097,5.17418140995187,7.07608623100776E-15));
#429=CARTESIAN_POINT('',(-1.56257522758097,19.5654239972947,0.));
#430=CARTESIAN_POINT('',(-1.57257513219693,18.31542422372,0.));
#431=MECHANICAL_DESIGN_GEOMETRIC_PRESENTATION_REPRESENTATION('',(#40,#23,
#24,#25,#26,#27,#28,#29,#30,#31,#32,#33,#34,#35,#36),#432);
#432=(
GEOMETRIC_REPRESENTATION_CONTEXT(3)
GLOBAL_UNCERTAINTY_ASSIGNED_CONTEXT((#433))
GLOBAL_UNIT_ASSIGNED_CONTEXT((#439,#435,#434))
REPRESENTATION_CONTEXT('n 01 025 0036 x','TOP_LEVEL_ASSEMBLY_PART')
);
#433=UNCERTAINTY_MEASURE_WITH_UNIT(LENGTH_MEASURE(0.0508),#439,
'DISTANCE_ACCURACY_VALUE','Maximum Tolerance applied to model');
#434=(
NAMED_UNIT(*)
SI_UNIT($,.STERADIAN.)
SOLID_ANGLE_UNIT()
);
#435=(
CONVERSION_BASED_UNIT('DEGREE',#437)
NAMED_UNIT(#436)
PLANE_ANGLE_UNIT()
);
#436=DIMENSIONAL_EXPONENTS(0.,0.,0.,0.,0.,0.,0.);
#437=PLANE_ANGLE_MEASURE_WITH_UNIT(PLANE_ANGLE_MEASURE(0.0174532925),#438);
#438=(
NAMED_UNIT(*)
PLANE_ANGLE_UNIT()
SI_UNIT($,.RADIAN.)
);
#439=(
LENGTH_UNIT()
NAMED_UNIT(*)
SI_UNIT(.MILLI.,.METRE.)
);
ENDSEC;
END-ISO-10303-21;
