ISO-10303-21;
HEADER;
/* Generated by software containing ST-Developer
 * from STEP Tools, Inc. (www.steptools.com) 
 */
/* OPTION: using custom schema-name function */

FILE_DESCRIPTION(
/* description */ (''),
/* implementation_level */ '2;1');

FILE_NAME(
/* name */ 'n 01 025 0037 x.stp',
/* time_stamp */ '2018-09-25T11:22:55+02:00',
/* author */ (''),
/* organization */ (''),
/* preprocessor_version */ 'ST-DEVELOPER v16',
/* originating_system */ 'SIEMENS PLM Software NX 11.0',
/* authorisation */ '');

FILE_SCHEMA (('AUTOMOTIVE_DESIGN { 1 0 10303 214 3 1 1 1 }'));
ENDSEC;

DATA;
#10=SHAPE_REPRESENTATION_RELATIONSHIP('None',
'relationship between n 01 025 0037nxm001-03-None and n 01 025 0037nxm
001-03-None',#22,#11);
#11=ADVANCED_BREP_SHAPE_REPRESENTATION('n 01 025 0037nxm001-03-None',(#153),
#513);
#12=SHAPE_DEFINITION_REPRESENTATION(#13,#22);
#13=PRODUCT_DEFINITION_SHAPE('','',#14);
#14=PRODUCT_DEFINITION(' ','',#16,#15);
#15=PRODUCT_DEFINITION_CONTEXT('part definition',#21,'design');
#16=PRODUCT_DEFINITION_FORMATION_WITH_SPECIFIED_SOURCE(' ',' ',#18,
 .NOT_KNOWN.);
#17=PRODUCT_RELATED_PRODUCT_CATEGORY('part','',(#18));
#18=PRODUCT('n 01 025 0037nxm001-03','n 01 025 0037nxm001-03',' ',(#19));
#19=PRODUCT_CONTEXT(' ',#21,'mechanical');
#20=APPLICATION_PROTOCOL_DEFINITION('international standard',
'automotive_design',2010,#21);
#21=APPLICATION_CONTEXT(
'core data for automotive mechanical design processes');
#22=SHAPE_REPRESENTATION('n 01 025 0037nxm001-03-None',(#336),#513);
#23=OVER_RIDING_STYLED_ITEM('',(#45),#204,#43);
#24=OVER_RIDING_STYLED_ITEM('',(#46),#205,#43);
#25=OVER_RIDING_STYLED_ITEM('',(#47),#206,#43);
#26=OVER_RIDING_STYLED_ITEM('',(#48),#207,#43);
#27=OVER_RIDING_STYLED_ITEM('',(#49),#208,#43);
#28=OVER_RIDING_STYLED_ITEM('',(#50),#209,#43);
#29=OVER_RIDING_STYLED_ITEM('',(#51),#210,#43);
#30=OVER_RIDING_STYLED_ITEM('',(#52),#211,#43);
#31=OVER_RIDING_STYLED_ITEM('',(#53),#212,#43);
#32=OVER_RIDING_STYLED_ITEM('',(#54),#213,#43);
#33=OVER_RIDING_STYLED_ITEM('',(#55),#214,#43);
#34=OVER_RIDING_STYLED_ITEM('',(#56),#215,#43);
#35=OVER_RIDING_STYLED_ITEM('',(#57),#216,#43);
#36=OVER_RIDING_STYLED_ITEM('',(#58),#217,#43);
#37=OVER_RIDING_STYLED_ITEM('',(#59),#218,#43);
#38=OVER_RIDING_STYLED_ITEM('',(#60),#219,#43);
#39=OVER_RIDING_STYLED_ITEM('',(#61),#220,#43);
#40=DRAUGHTING_PRE_DEFINED_COLOUR('red');
#41=DRAUGHTING_PRE_DEFINED_COLOUR('magenta');
#42=PRESENTATION_LAYER_ASSIGNMENT('1','Layer 1',(#153));
#43=STYLED_ITEM('',(#44),#153);
#44=PRESENTATION_STYLE_ASSIGNMENT((#62));
#45=PRESENTATION_STYLE_ASSIGNMENT((#63));
#46=PRESENTATION_STYLE_ASSIGNMENT((#64));
#47=PRESENTATION_STYLE_ASSIGNMENT((#65));
#48=PRESENTATION_STYLE_ASSIGNMENT((#66));
#49=PRESENTATION_STYLE_ASSIGNMENT((#67));
#50=PRESENTATION_STYLE_ASSIGNMENT((#68));
#51=PRESENTATION_STYLE_ASSIGNMENT((#69));
#52=PRESENTATION_STYLE_ASSIGNMENT((#70));
#53=PRESENTATION_STYLE_ASSIGNMENT((#71));
#54=PRESENTATION_STYLE_ASSIGNMENT((#72));
#55=PRESENTATION_STYLE_ASSIGNMENT((#73));
#56=PRESENTATION_STYLE_ASSIGNMENT((#74));
#57=PRESENTATION_STYLE_ASSIGNMENT((#75));
#58=PRESENTATION_STYLE_ASSIGNMENT((#76));
#59=PRESENTATION_STYLE_ASSIGNMENT((#77));
#60=PRESENTATION_STYLE_ASSIGNMENT((#78));
#61=PRESENTATION_STYLE_ASSIGNMENT((#79));
#62=SURFACE_STYLE_USAGE(.BOTH.,#80);
#63=SURFACE_STYLE_USAGE(.BOTH.,#81);
#64=SURFACE_STYLE_USAGE(.BOTH.,#82);
#65=SURFACE_STYLE_USAGE(.BOTH.,#83);
#66=SURFACE_STYLE_USAGE(.BOTH.,#84);
#67=SURFACE_STYLE_USAGE(.BOTH.,#85);
#68=SURFACE_STYLE_USAGE(.BOTH.,#86);
#69=SURFACE_STYLE_USAGE(.BOTH.,#87);
#70=SURFACE_STYLE_USAGE(.BOTH.,#88);
#71=SURFACE_STYLE_USAGE(.BOTH.,#89);
#72=SURFACE_STYLE_USAGE(.BOTH.,#90);
#73=SURFACE_STYLE_USAGE(.BOTH.,#91);
#74=SURFACE_STYLE_USAGE(.BOTH.,#92);
#75=SURFACE_STYLE_USAGE(.BOTH.,#93);
#76=SURFACE_STYLE_USAGE(.BOTH.,#94);
#77=SURFACE_STYLE_USAGE(.BOTH.,#95);
#78=SURFACE_STYLE_USAGE(.BOTH.,#96);
#79=SURFACE_STYLE_USAGE(.BOTH.,#97);
#80=SURFACE_SIDE_STYLE('',(#98));
#81=SURFACE_SIDE_STYLE('',(#99));
#82=SURFACE_SIDE_STYLE('',(#100));
#83=SURFACE_SIDE_STYLE('',(#101));
#84=SURFACE_SIDE_STYLE('',(#102));
#85=SURFACE_SIDE_STYLE('',(#103));
#86=SURFACE_SIDE_STYLE('',(#104));
#87=SURFACE_SIDE_STYLE('',(#105));
#88=SURFACE_SIDE_STYLE('',(#106));
#89=SURFACE_SIDE_STYLE('',(#107));
#90=SURFACE_SIDE_STYLE('',(#108));
#91=SURFACE_SIDE_STYLE('',(#109));
#92=SURFACE_SIDE_STYLE('',(#110));
#93=SURFACE_SIDE_STYLE('',(#111));
#94=SURFACE_SIDE_STYLE('',(#112));
#95=SURFACE_SIDE_STYLE('',(#113));
#96=SURFACE_SIDE_STYLE('',(#114));
#97=SURFACE_SIDE_STYLE('',(#115));
#98=SURFACE_STYLE_FILL_AREA(#116);
#99=SURFACE_STYLE_FILL_AREA(#117);
#100=SURFACE_STYLE_FILL_AREA(#118);
#101=SURFACE_STYLE_FILL_AREA(#119);
#102=SURFACE_STYLE_FILL_AREA(#120);
#103=SURFACE_STYLE_FILL_AREA(#121);
#104=SURFACE_STYLE_FILL_AREA(#122);
#105=SURFACE_STYLE_FILL_AREA(#123);
#106=SURFACE_STYLE_FILL_AREA(#124);
#107=SURFACE_STYLE_FILL_AREA(#125);
#108=SURFACE_STYLE_FILL_AREA(#126);
#109=SURFACE_STYLE_FILL_AREA(#127);
#110=SURFACE_STYLE_FILL_AREA(#128);
#111=SURFACE_STYLE_FILL_AREA(#129);
#112=SURFACE_STYLE_FILL_AREA(#130);
#113=SURFACE_STYLE_FILL_AREA(#131);
#114=SURFACE_STYLE_FILL_AREA(#132);
#115=SURFACE_STYLE_FILL_AREA(#133);
#116=FILL_AREA_STYLE('',(#134));
#117=FILL_AREA_STYLE('',(#135));
#118=FILL_AREA_STYLE('',(#136));
#119=FILL_AREA_STYLE('',(#137));
#120=FILL_AREA_STYLE('',(#138));
#121=FILL_AREA_STYLE('',(#139));
#122=FILL_AREA_STYLE('',(#140));
#123=FILL_AREA_STYLE('',(#141));
#124=FILL_AREA_STYLE('',(#142));
#125=FILL_AREA_STYLE('',(#143));
#126=FILL_AREA_STYLE('',(#144));
#127=FILL_AREA_STYLE('',(#145));
#128=FILL_AREA_STYLE('',(#146));
#129=FILL_AREA_STYLE('',(#147));
#130=FILL_AREA_STYLE('',(#148));
#131=FILL_AREA_STYLE('',(#149));
#132=FILL_AREA_STYLE('',(#150));
#133=FILL_AREA_STYLE('',(#151));
#134=FILL_AREA_STYLE_COLOUR('',#152);
#135=FILL_AREA_STYLE_COLOUR('',#40);
#136=FILL_AREA_STYLE_COLOUR('',#40);
#137=FILL_AREA_STYLE_COLOUR('',#40);
#138=FILL_AREA_STYLE_COLOUR('',#40);
#139=FILL_AREA_STYLE_COLOUR('',#40);
#140=FILL_AREA_STYLE_COLOUR('',#40);
#141=FILL_AREA_STYLE_COLOUR('',#41);
#142=FILL_AREA_STYLE_COLOUR('',#41);
#143=FILL_AREA_STYLE_COLOUR('',#40);
#144=FILL_AREA_STYLE_COLOUR('',#41);
#145=FILL_AREA_STYLE_COLOUR('',#41);
#146=FILL_AREA_STYLE_COLOUR('',#40);
#147=FILL_AREA_STYLE_COLOUR('',#40);
#148=FILL_AREA_STYLE_COLOUR('',#40);
#149=FILL_AREA_STYLE_COLOUR('',#40);
#150=FILL_AREA_STYLE_COLOUR('',#40);
#151=FILL_AREA_STYLE_COLOUR('',#40);
#152=COLOUR_RGB('Mittleres Stahlblau',0.596063172350652,0.666666666666667,
0.686259250782025);
#153=MANIFOLD_SOLID_BREP('',#154);
#154=CLOSED_SHELL('',(#204,#205,#206,#207,#208,#209,#210,#211,#212,#213,
#214,#215,#216,#217,#218,#219,#220));
#155=SPHERICAL_SURFACE('',#367,1.24999983871744);
#156=VERTEX_LOOP('',#304);
#157=B_SPLINE_CURVE_WITH_KNOTS('',3,(#498,#499,#500,#501,#502,#503,#504,
#505,#506,#507),.UNSPECIFIED.,.T.,.F.,(2,2,2,2,2,2,2),(-0.25,0.,0.25,0.5,
0.75,1.,1.25),.UNSPECIFIED.);
#158=(
BOUNDED_SURFACE()
B_SPLINE_SURFACE(2,2,((#477,#478,#479),(#480,#481,#482),(#483,#484,#485),
(#486,#487,#488),(#489,#490,#491),(#492,#493,#494),(#495,#496,#497)),
 .UNSPECIFIED.,.T.,.F.,.F.)
B_SPLINE_SURFACE_WITH_KNOTS((1,2,2,2,2,1),(3,3),(-0.333333333333333,0.,
0.333333333333333,0.666666666666667,1.,1.33333333333333),(0.,1.),
 .UNSPECIFIED.)
GEOMETRIC_REPRESENTATION_ITEM()
RATIONAL_B_SPLINE_SURFACE(((1.,0.866025403784442,1.),(0.5,0.433012701892221,
0.5),(1.,0.866025403784442,1.),(0.5,0.433012701892221,0.5),(1.,0.866025403784442,
1.),(0.5,0.433012701892221,0.5),(1.,0.866025403784442,1.)))
REPRESENTATION_ITEM('')
SURFACE()
);
#159=CONICAL_SURFACE('',#342,1.75,60.);
#160=CONICAL_SURFACE('',#350,2.1,45.);
#161=CONICAL_SURFACE('',#352,2.1,45.);
#162=CONICAL_SURFACE('',#356,2.1,45.0000000000001);
#163=CONICAL_SURFACE('',#358,2.1,45.);
#164=CONICAL_SURFACE('',#362,2.14080892972014,19.9999999999997);
#165=CONICAL_SURFACE('',#364,1.49,60.);
#166=CYLINDRICAL_SURFACE('',#340,2.25);
#167=CYLINDRICAL_SURFACE('',#344,1.5);
#168=CYLINDRICAL_SURFACE('',#348,2.25);
#169=CYLINDRICAL_SURFACE('',#354,2.25);
#170=CYLINDRICAL_SURFACE('',#360,2.25);
#171=CYLINDRICAL_SURFACE('',#366,1.24);
#172=FACE_BOUND('',#225,.T.);
#173=FACE_BOUND('',#226,.T.);
#174=FACE_BOUND('',#227,.T.);
#175=FACE_BOUND('',#228,.T.);
#176=FACE_BOUND('',#229,.T.);
#177=FACE_BOUND('',#230,.T.);
#178=FACE_BOUND('',#231,.T.);
#179=FACE_BOUND('',#232,.T.);
#180=FACE_BOUND('',#233,.T.);
#181=FACE_BOUND('',#234,.T.);
#182=FACE_BOUND('',#235,.T.);
#183=FACE_BOUND('',#236,.T.);
#184=FACE_BOUND('',#237,.T.);
#185=FACE_BOUND('',#238,.T.);
#186=FACE_BOUND('',#239,.T.);
#187=FACE_BOUND('',#240,.T.);
#188=FACE_BOUND('',#241,.T.);
#189=FACE_BOUND('',#242,.T.);
#190=FACE_BOUND('',#243,.T.);
#191=FACE_BOUND('',#244,.T.);
#192=FACE_BOUND('',#245,.T.);
#193=FACE_BOUND('',#246,.T.);
#194=FACE_BOUND('',#247,.T.);
#195=FACE_BOUND('',#248,.T.);
#196=FACE_BOUND('',#249,.T.);
#197=FACE_BOUND('',#250,.T.);
#198=FACE_BOUND('',#251,.T.);
#199=FACE_BOUND('',#252,.T.);
#200=FACE_BOUND('',#253,.T.);
#201=FACE_BOUND('',#254,.T.);
#202=FACE_BOUND('',#156,.T.);
#203=FACE_BOUND('',#255,.T.);
#204=ADVANCED_FACE('',(#223),#221,.T.);
#205=ADVANCED_FACE('',(#172,#173),#166,.T.);
#206=ADVANCED_FACE('',(#174,#175),#159,.T.);
#207=ADVANCED_FACE('',(#176,#177),#167,.T.);
#208=ADVANCED_FACE('',(#178,#179),#222,.T.);
#209=ADVANCED_FACE('',(#180,#181),#168,.T.);
#210=ADVANCED_FACE('',(#182,#183),#160,.T.);
#211=ADVANCED_FACE('',(#184,#185),#161,.T.);
#212=ADVANCED_FACE('',(#186,#187),#169,.T.);
#213=ADVANCED_FACE('',(#188,#189),#162,.T.);
#214=ADVANCED_FACE('',(#190,#191),#163,.T.);
#215=ADVANCED_FACE('',(#192,#193),#170,.T.);
#216=ADVANCED_FACE('',(#194,#195),#164,.T.);
#217=ADVANCED_FACE('',(#196,#197),#165,.T.);
#218=ADVANCED_FACE('',(#198,#199),#158,.T.);
#219=ADVANCED_FACE('',(#200,#201),#171,.T.);
#220=ADVANCED_FACE('',(#202,#203),#155,.T.);
#221=PLANE('',#338);
#222=PLANE('',#346);
#223=FACE_OUTER_BOUND('',#224,.T.);
#224=EDGE_LOOP('',(#256));
#225=EDGE_LOOP('',(#257));
#226=EDGE_LOOP('',(#258));
#227=EDGE_LOOP('',(#259));
#228=EDGE_LOOP('',(#260));
#229=EDGE_LOOP('',(#261));
#230=EDGE_LOOP('',(#262));
#231=EDGE_LOOP('',(#263));
#232=EDGE_LOOP('',(#264));
#233=EDGE_LOOP('',(#265));
#234=EDGE_LOOP('',(#266));
#235=EDGE_LOOP('',(#267));
#236=EDGE_LOOP('',(#268));
#237=EDGE_LOOP('',(#269));
#238=EDGE_LOOP('',(#270));
#239=EDGE_LOOP('',(#271));
#240=EDGE_LOOP('',(#272));
#241=EDGE_LOOP('',(#273));
#242=EDGE_LOOP('',(#274));
#243=EDGE_LOOP('',(#275));
#244=EDGE_LOOP('',(#276));
#245=EDGE_LOOP('',(#277));
#246=EDGE_LOOP('',(#278));
#247=EDGE_LOOP('',(#279));
#248=EDGE_LOOP('',(#280));
#249=EDGE_LOOP('',(#281));
#250=EDGE_LOOP('',(#282));
#251=EDGE_LOOP('',(#283));
#252=EDGE_LOOP('',(#284));
#253=EDGE_LOOP('',(#285));
#254=EDGE_LOOP('',(#286));
#255=EDGE_LOOP('',(#287));
#256=ORIENTED_EDGE('',*,*,#305,.F.);
#257=ORIENTED_EDGE('',*,*,#306,.T.);
#258=ORIENTED_EDGE('',*,*,#305,.T.);
#259=ORIENTED_EDGE('',*,*,#307,.T.);
#260=ORIENTED_EDGE('',*,*,#306,.F.);
#261=ORIENTED_EDGE('',*,*,#308,.F.);
#262=ORIENTED_EDGE('',*,*,#307,.F.);
#263=ORIENTED_EDGE('',*,*,#308,.T.);
#264=ORIENTED_EDGE('',*,*,#309,.F.);
#265=ORIENTED_EDGE('',*,*,#309,.T.);
#266=ORIENTED_EDGE('',*,*,#310,.T.);
#267=ORIENTED_EDGE('',*,*,#310,.F.);
#268=ORIENTED_EDGE('',*,*,#311,.T.);
#269=ORIENTED_EDGE('',*,*,#311,.F.);
#270=ORIENTED_EDGE('',*,*,#312,.F.);
#271=ORIENTED_EDGE('',*,*,#313,.T.);
#272=ORIENTED_EDGE('',*,*,#312,.T.);
#273=ORIENTED_EDGE('',*,*,#313,.F.);
#274=ORIENTED_EDGE('',*,*,#314,.F.);
#275=ORIENTED_EDGE('',*,*,#314,.T.);
#276=ORIENTED_EDGE('',*,*,#315,.F.);
#277=ORIENTED_EDGE('',*,*,#316,.T.);
#278=ORIENTED_EDGE('',*,*,#315,.T.);
#279=ORIENTED_EDGE('',*,*,#317,.F.);
#280=ORIENTED_EDGE('',*,*,#316,.F.);
#281=ORIENTED_EDGE('',*,*,#318,.F.);
#282=ORIENTED_EDGE('',*,*,#317,.T.);
#283=ORIENTED_EDGE('',*,*,#319,.F.);
#284=ORIENTED_EDGE('',*,*,#318,.T.);
#285=ORIENTED_EDGE('',*,*,#320,.F.);
#286=ORIENTED_EDGE('',*,*,#319,.T.);
#287=ORIENTED_EDGE('',*,*,#320,.T.);
#288=VERTEX_POINT('',#434);
#289=VERTEX_POINT('',#437);
#290=VERTEX_POINT('',#440);
#291=VERTEX_POINT('',#443);
#292=VERTEX_POINT('',#446);
#293=VERTEX_POINT('',#449);
#294=VERTEX_POINT('',#452);
#295=VERTEX_POINT('',#455);
#296=VERTEX_POINT('',#458);
#297=VERTEX_POINT('',#461);
#298=VERTEX_POINT('',#464);
#299=VERTEX_POINT('',#467);
#300=VERTEX_POINT('',#470);
#301=VERTEX_POINT('',#473);
#302=VERTEX_POINT('',#476);
#303=VERTEX_POINT('',#508);
#304=VERTEX_POINT('',#510);
#305=EDGE_CURVE('',#288,#288,#321,.T.);
#306=EDGE_CURVE('',#289,#289,#322,.T.);
#307=EDGE_CURVE('',#290,#290,#323,.T.);
#308=EDGE_CURVE('',#291,#291,#324,.T.);
#309=EDGE_CURVE('',#292,#292,#325,.T.);
#310=EDGE_CURVE('',#293,#293,#326,.T.);
#311=EDGE_CURVE('',#294,#294,#327,.T.);
#312=EDGE_CURVE('',#295,#295,#328,.T.);
#313=EDGE_CURVE('',#296,#296,#329,.T.);
#314=EDGE_CURVE('',#297,#297,#330,.T.);
#315=EDGE_CURVE('',#298,#298,#331,.T.);
#316=EDGE_CURVE('',#299,#299,#332,.T.);
#317=EDGE_CURVE('',#300,#300,#333,.T.);
#318=EDGE_CURVE('',#301,#301,#334,.T.);
#319=EDGE_CURVE('',#302,#302,#335,.T.);
#320=EDGE_CURVE('',#303,#303,#157,.T.);
#321=CIRCLE('',#337,2.25);
#322=CIRCLE('',#339,2.25);
#323=CIRCLE('',#341,1.5);
#324=CIRCLE('',#343,1.5);
#325=CIRCLE('',#345,2.25);
#326=CIRCLE('',#347,2.25);
#327=CIRCLE('',#349,2.1);
#328=CIRCLE('',#351,2.25);
#329=CIRCLE('',#353,2.25);
#330=CIRCLE('',#355,2.1);
#331=CIRCLE('',#357,2.25);
#332=CIRCLE('',#359,2.25);
#333=CIRCLE('',#361,2.14080892972014);
#334=CIRCLE('',#363,1.49);
#335=CIRCLE('',#365,1.24);
#336=AXIS2_PLACEMENT_3D('',#432,#368,#369);
#337=AXIS2_PLACEMENT_3D('',#433,#370,#371);
#338=AXIS2_PLACEMENT_3D('',#435,#372,#373);
#339=AXIS2_PLACEMENT_3D('',#436,#374,#375);
#340=AXIS2_PLACEMENT_3D('',#438,#376,#377);
#341=AXIS2_PLACEMENT_3D('',#439,#378,#379);
#342=AXIS2_PLACEMENT_3D('',#441,#380,#381);
#343=AXIS2_PLACEMENT_3D('',#442,#382,#383);
#344=AXIS2_PLACEMENT_3D('',#444,#384,#385);
#345=AXIS2_PLACEMENT_3D('',#445,#386,#387);
#346=AXIS2_PLACEMENT_3D('',#447,#388,#389);
#347=AXIS2_PLACEMENT_3D('',#448,#390,#391);
#348=AXIS2_PLACEMENT_3D('',#450,#392,#393);
#349=AXIS2_PLACEMENT_3D('',#451,#394,#395);
#350=AXIS2_PLACEMENT_3D('',#453,#396,#397);
#351=AXIS2_PLACEMENT_3D('',#454,#398,#399);
#352=AXIS2_PLACEMENT_3D('',#456,#400,#401);
#353=AXIS2_PLACEMENT_3D('',#457,#402,#403);
#354=AXIS2_PLACEMENT_3D('',#459,#404,#405);
#355=AXIS2_PLACEMENT_3D('',#460,#406,#407);
#356=AXIS2_PLACEMENT_3D('',#462,#408,#409);
#357=AXIS2_PLACEMENT_3D('',#463,#410,#411);
#358=AXIS2_PLACEMENT_3D('',#465,#412,#413);
#359=AXIS2_PLACEMENT_3D('',#466,#414,#415);
#360=AXIS2_PLACEMENT_3D('',#468,#416,#417);
#361=AXIS2_PLACEMENT_3D('',#469,#418,#419);
#362=AXIS2_PLACEMENT_3D('',#471,#420,#421);
#363=AXIS2_PLACEMENT_3D('',#472,#422,#423);
#364=AXIS2_PLACEMENT_3D('',#474,#424,#425);
#365=AXIS2_PLACEMENT_3D('',#475,#426,#427);
#366=AXIS2_PLACEMENT_3D('',#509,#428,#429);
#367=AXIS2_PLACEMENT_3D('',#511,#430,#431);
#368=DIRECTION('',(0.,0.,1.));
#369=DIRECTION('',(1.,0.,0.));
#370=DIRECTION('',(1.9030972168016E-16,1.,1.66076949957319E-16));
#371=DIRECTION('',(1.,0.,0.));
#372=DIRECTION('',(0.,-1.,0.));
#373=DIRECTION('',(0.,0.,1.));
#374=DIRECTION('',(0.,-1.,0.));
#375=DIRECTION('',(1.,0.,7.15485733610528E-16));
#376=DIRECTION('',(-2.86194293444211E-16,1.,5.94128441880059E-33));
#377=DIRECTION('',(1.,3.85494105772624E-16,0.));
#378=DIRECTION('',(0.,-1.,-9.38946624210723E-17));
#379=DIRECTION('',(0.,0.,-1.));
#380=DIRECTION('',(0.,-1.,-9.38946624210723E-17));
#381=DIRECTION('',(1.,-1.90101111383004E-17,-8.13151629364125E-17));
#382=DIRECTION('',(0.,1.,0.));
#383=DIRECTION('',(1.,0.,0.));
#384=DIRECTION('',(-8.77779425570698E-17,1.,1.88636662129719E-16));
#385=DIRECTION('',(1.,0.,0.));
#386=DIRECTION('',(-6.25964416140483E-17,1.,1.0842021724855E-16));
#387=DIRECTION('',(1.,9.6373526443156E-17,0.));
#388=DIRECTION('',(0.,-1.,0.));
#389=DIRECTION('',(0.,0.,1.));
#390=DIRECTION('',(-7.91505231823183E-17,-1.,-6.84341059801837E-32));
#391=DIRECTION('',(1.,0.,8.70655755005501E-16));
#392=DIRECTION('',(6.25964416140483E-17,1.,1.0842021724855E-16));
#393=DIRECTION('',(1.,-9.6373526443156E-17,0.));
#394=DIRECTION('',(-1.69608263962111E-16,-1.,-1.68341915220934E-31));
#395=DIRECTION('',(1.,-2.06514699521048E-16,1.01764958377267E-15));
#396=DIRECTION('',(0.,-1.,6.38872256951405E-17));
#397=DIRECTION('',(1.,-2.76974110524188E-17,1.89186437382116E-33));
#398=DIRECTION('',(0.,1.,0.));
#399=DIRECTION('',(1.,0.,-7.91505231823188E-17));
#400=DIRECTION('',(0.,1.,0.));
#401=DIRECTION('',(1.,8.30922331572565E-17,0.));
#402=DIRECTION('',(0.,-1.,0.));
#403=DIRECTION('',(1.,0.,7.12354708640865E-16));
#404=DIRECTION('',(6.25964416140483E-17,1.,1.0842021724855E-16));
#405=DIRECTION('',(1.,-9.6373526443156E-17,0.));
#406=DIRECTION('',(-1.86405970548055E-16,1.,-2.6467564930844E-16));
#407=DIRECTION('',(1.,2.06514699521048E-16,0.));
#408=DIRECTION('',(0.,-1.,1.27774451390281E-16));
#409=DIRECTION('',(1.,-2.22444832514738E-16,-1.16064377854266E-32));
#410=DIRECTION('',(2.215702907959E-16,1.,-9.03501810404585E-17));
#411=DIRECTION('',(1.,-1.92747052886312E-16,0.));
#412=DIRECTION('',(0.,1.,-5.01544256350843E-33));
#413=DIRECTION('',(1.,-2.22444832514739E-16,0.));
#414=DIRECTION('',(-4.67614749737576E-17,-1.,1.65682585904919E-16));
#415=DIRECTION('',(1.,0.,7.1209180272998E-16));
#416=DIRECTION('',(6.25964416140483E-17,1.,1.0842021724855E-16));
#417=DIRECTION('',(1.,-9.6373526443156E-17,0.));
#418=DIRECTION('',(0.,1.,0.));
#419=DIRECTION('',(1.,0.,-7.38879180558213E-17));
#420=DIRECTION('',(0.,-1.,-1.6980279682078E-16));
#421=DIRECTION('',(1.,-1.49254687911798E-16,-2.77820560396265E-32));
#422=DIRECTION('',(0.,1.,0.));
#423=DIRECTION('',(1.,0.,0.));
#424=DIRECTION('',(0.,-1.,5.77095108153777E-16));
#425=DIRECTION('',(1.,3.01705691451527E-16,9.72107892690536E-35));
#426=DIRECTION('',(3.1088234336502E-16,1.,-5.38464013884287E-16));
#427=DIRECTION('',(1.,0.,0.));
#428=DIRECTION('',(-1.65803916461344E-15,1.,8.36994772270408E-32));
#429=DIRECTION('',(1.,1.39897054514259E-15,0.));
#430=DIRECTION('',(-3.46944739960271E-16,0.999999999999999,3.27247553298036E-15));
#431=DIRECTION('',(1.,0.,0.));
#432=CARTESIAN_POINT('',(0.,0.,0.));
#433=CARTESIAN_POINT('',(-1.56257522758097,-5.55004605654322,0.));
#434=CARTESIAN_POINT('',(0.687424772419035,-5.55004605654322,0.));
#435=CARTESIAN_POINT('',(0.912424772419035,-5.55004605654322,-2.475));
#436=CARTESIAN_POINT('',(-1.56257522758097,-3.08305875843544,-1.60984290062369E-15));
#437=CARTESIAN_POINT('',(0.687424772419035,-3.08305875843544,-2.31111593326468E-30));
#438=CARTESIAN_POINT('',(-1.56257522758097,-5.55004605654322,-7.75731186762919E-33));
#439=CARTESIAN_POINT('',(-1.56257522758097,-2.65004605654322,1.89735380184963E-16));
#440=CARTESIAN_POINT('',(-1.56257522758097,-2.65004605654322,-1.5));
#441=CARTESIAN_POINT('',(-1.56257522758097,-2.79438362384062,1.76182853028894E-16));
#442=CARTESIAN_POINT('',(-1.56257522758097,1.94995394345679,0.));
#443=CARTESIAN_POINT('',(-0.062575227580965,1.94995394345679,0.));
#444=CARTESIAN_POINT('',(-1.56257522758097,-2.217033354651,-3.93023287525995E-16));
#445=CARTESIAN_POINT('',(-1.56257522758097,1.94995394345679,0.));
#446=CARTESIAN_POINT('',(0.687424772419035,1.94995394345679,0.));
#447=CARTESIAN_POINT('',(0.912424772419037,1.94995394345679,-2.475));
#448=CARTESIAN_POINT('',(-1.56257522758097,1.9999544335423,-1.96846211617224E-15));
#449=CARTESIAN_POINT('',(0.687424772419035,1.9999544335423,-9.48666740985792E-18));
#450=CARTESIAN_POINT('',(-1.56257522758097,1.94995394345679,-1.0842021724855E-16));
#451=CARTESIAN_POINT('',(-1.56257522758097,2.14995443354229,-2.13746124014574E-15));
#452=CARTESIAN_POINT('',(0.537424772419035,2.14995443354229,-3.97114223133198E-19));
#453=CARTESIAN_POINT('',(-1.56257522758097,2.14995443354229,-1.42782093369912E-17));
#454=CARTESIAN_POINT('',(-1.56257522758097,2.2999544335423,1.77691562937084E-16));
#455=CARTESIAN_POINT('',(0.687424772419035,2.2999544335423,-3.97114223133246E-19));
#456=CARTESIAN_POINT('',(-1.56257522758097,2.14995443354229,-3.971142231332E-19));
#457=CARTESIAN_POINT('',(-1.56257522758097,2.59995394345679,-1.61358326838927E-15));
#458=CARTESIAN_POINT('',(0.687424772419035,2.59995394345679,-1.07851739473288E-17));
#459=CARTESIAN_POINT('',(-1.56257522758097,1.94995394345679,-1.0842021724855E-16));
#460=CARTESIAN_POINT('',(-1.56257522758097,2.74995394345679,-1.07851739473259E-17));
#461=CARTESIAN_POINT('',(0.537424772419035,2.74995394345679,-1.07851739473259E-17));
#462=CARTESIAN_POINT('',(-1.56257522758097,2.74995394345679,-2.0368257801597E-17));
#463=CARTESIAN_POINT('',(-1.56257522758097,2.89995394345679,-6.5650242534905E-18));
#464=CARTESIAN_POINT('',(0.687424772419035,2.89995394345678,-6.5650242534905E-18));
#465=CARTESIAN_POINT('',(-1.56257522758097,2.74995394345679,-1.69562076060347E-18));
#466=CARTESIAN_POINT('',(-1.56257522758097,3.94995394345679,-1.60220655614246E-15));
#467=CARTESIAN_POINT('',(0.687424772419035,3.94995394345679,0.));
#468=CARTESIAN_POINT('',(-1.56257522758097,1.94995394345679,-1.0842021724855E-16));
#469=CARTESIAN_POINT('',(-1.56257522758097,4.24995394345679,1.58179914772333E-16));
#470=CARTESIAN_POINT('',(0.578233702139175,4.24995394345679,3.12963615962926E-31));
#471=CARTESIAN_POINT('',(-1.56257522758097,4.24995394345679,2.54704195231171E-17));
#472=CARTESIAN_POINT('',(-1.56257522758097,4.62569865422173,0.));
#473=CARTESIAN_POINT('',(-0.072575227580965,4.62569865422173,0.));
#474=CARTESIAN_POINT('',(-1.56257522758097,4.62569865422172,-1.08420217248551E-16));
#475=CARTESIAN_POINT('',(-1.56257522758097,5.05871135611394,0.));
#476=CARTESIAN_POINT('',(-0.322575227580965,5.05871135611394,0.));
#477=CARTESIAN_POINT('',(-0.0725752275809661,4.62569865422173,0.));
#478=CARTESIAN_POINT('',(-0.322575227580964,4.77003622151913,0.));
#479=CARTESIAN_POINT('',(-0.322575227580965,5.05871135611394,0.));
#480=CARTESIAN_POINT('',(-0.0725752275809661,4.62569865422173,-2.58075570327762));
#481=CARTESIAN_POINT('',(-0.322575227580963,4.77003622151913,-2.1477430013854));
#482=CARTESIAN_POINT('',(-0.322575227580966,5.05871135611394,-2.1477430013854));
#483=CARTESIAN_POINT('',(-2.30757522758097,4.62569865422173,-1.29037785163881));
#484=CARTESIAN_POINT('',(-2.18257522758096,4.77003622151913,-1.0738715006927));
#485=CARTESIAN_POINT('',(-2.18257522758096,5.05871135611394,-1.0738715006927));
#486=CARTESIAN_POINT('',(-4.54257522758096,4.62569865422173,-1.30104260698261E-15));
#487=CARTESIAN_POINT('',(-4.04257522758097,4.77003622151913,-1.082746867556E-15));
#488=CARTESIAN_POINT('',(-4.04257522758096,5.05871135611394,-1.08274686755599E-15));
#489=CARTESIAN_POINT('',(-2.30757522758097,4.62569865422173,1.29037785163881));
#490=CARTESIAN_POINT('',(-2.18257522758096,4.77003622151913,1.0738715006927));
#491=CARTESIAN_POINT('',(-2.18257522758096,5.05871135611394,1.0738715006927));
#492=CARTESIAN_POINT('',(-0.0725752275809685,4.62569865422173,2.58075570327762));
#493=CARTESIAN_POINT('',(-0.322575227580966,4.77003622151913,2.1477430013854));
#494=CARTESIAN_POINT('',(-0.322575227580968,5.05871135611394,2.1477430013854));
#495=CARTESIAN_POINT('',(-0.0725752275809661,4.62569865422173,0.));
#496=CARTESIAN_POINT('',(-0.322575227580964,4.77003622151913,0.));
#497=CARTESIAN_POINT('',(-0.322575227580965,5.05871135611394,0.));
#498=CARTESIAN_POINT('',(-0.322575293479497,18.1999539434568,0.654498385050511));
#499=CARTESIAN_POINT('',(-0.322575293479498,18.1999539434568,-0.654498385050511));
#500=CARTESIAN_POINT('',(-0.918076747146406,18.1999539434568,-1.24999983871742));
#501=CARTESIAN_POINT('',(-2.22707351724743,18.1999539434568,-1.24999983871742));
#502=CARTESIAN_POINT('',(-2.82257497091433,18.1999539434568,-0.654498385050509));
#503=CARTESIAN_POINT('',(-2.82257497091433,18.1999539434568,0.654498385050514));
#504=CARTESIAN_POINT('',(-2.22707351724742,18.1999539434568,1.24999983871742));
#505=CARTESIAN_POINT('',(-0.9180767471464,18.1999539434568,1.24999983871742));
#506=CARTESIAN_POINT('',(-0.322575293479497,18.1999539434568,0.654498385050511));
#507=CARTESIAN_POINT('',(-0.322575293479498,18.1999539434568,-0.654498385050511));
#508=CARTESIAN_POINT('',(-0.322575260530237,18.1999539434568,-2.62247674378716E-15));
#509=CARTESIAN_POINT('',(-1.56257522758096,5.05871135611394,-5.4995756733716E-31));
#510=CARTESIAN_POINT('',(-1.56257522758097,19.4499539434568,0.));
#511=CARTESIAN_POINT('',(-1.57257513219692,18.1999541698821,0.));
#512=MECHANICAL_DESIGN_GEOMETRIC_PRESENTATION_REPRESENTATION('',(#43,#23,
#24,#25,#26,#27,#28,#29,#30,#31,#32,#33,#34,#35,#36,#37,#38,#39),#513);
#513=(
GEOMETRIC_REPRESENTATION_CONTEXT(3)
GLOBAL_UNCERTAINTY_ASSIGNED_CONTEXT((#514))
GLOBAL_UNIT_ASSIGNED_CONTEXT((#520,#516,#515))
REPRESENTATION_CONTEXT('n 01 025 0037 x','TOP_LEVEL_ASSEMBLY_PART')
);
#514=UNCERTAINTY_MEASURE_WITH_UNIT(LENGTH_MEASURE(0.0508),#520,
'DISTANCE_ACCURACY_VALUE','Maximum Tolerance applied to model');
#515=(
NAMED_UNIT(*)
SI_UNIT($,.STERADIAN.)
SOLID_ANGLE_UNIT()
);
#516=(
CONVERSION_BASED_UNIT('DEGREE',#518)
NAMED_UNIT(#517)
PLANE_ANGLE_UNIT()
);
#517=DIMENSIONAL_EXPONENTS(0.,0.,0.,0.,0.,0.,0.);
#518=PLANE_ANGLE_MEASURE_WITH_UNIT(PLANE_ANGLE_MEASURE(0.0174532925),#519);
#519=(
NAMED_UNIT(*)
PLANE_ANGLE_UNIT()
SI_UNIT($,.RADIAN.)
);
#520=(
LENGTH_UNIT()
NAMED_UNIT(*)
SI_UNIT(.MILLI.,.METRE.)
);
ENDSEC;
END-ISO-10303-21;
