ISO-10303-21;
HEADER;
/* Generated by software containing ST-Developer
 * from STEP Tools, Inc. (www.steptools.com) 
 */
/* OPTION: using custom schema-name function */

FILE_DESCRIPTION(
/* description */ (''),
/* implementation_level */ '2;1');

FILE_NAME(
/* name */ 'n 01 025 0038 x.stp',
/* time_stamp */ '2018-09-25T11:22:31+02:00',
/* author */ (''),
/* organization */ (''),
/* preprocessor_version */ 'ST-DEVELOPER v16',
/* originating_system */ 'SIEMENS PLM Software NX 11.0',
/* authorisation */ '');

FILE_SCHEMA (('AUTOMOTIVE_DESIGN { 1 0 10303 214 3 1 1 1 }'));
ENDSEC;

DATA;
#10=SHAPE_REPRESENTATION_RELATIONSHIP('None',
'relationship between n 01 025 0038nxm001-03-None and n 01 025 0038nxm
001-03-None',#22,#11);
#11=ADVANCED_BREP_SHAPE_REPRESENTATION('n 01 025 0038nxm001-03-None',(#174),
#594);
#12=SHAPE_DEFINITION_REPRESENTATION(#13,#22);
#13=PRODUCT_DEFINITION_SHAPE('','',#14);
#14=PRODUCT_DEFINITION(' ','',#16,#15);
#15=PRODUCT_DEFINITION_CONTEXT('part definition',#21,'design');
#16=PRODUCT_DEFINITION_FORMATION_WITH_SPECIFIED_SOURCE(' ',' ',#18,
 .NOT_KNOWN.);
#17=PRODUCT_RELATED_PRODUCT_CATEGORY('part','',(#18));
#18=PRODUCT('n 01 025 0038nxm001-03','n 01 025 0038nxm001-03',' ',(#19));
#19=PRODUCT_CONTEXT(' ',#21,'mechanical');
#20=APPLICATION_PROTOCOL_DEFINITION('international standard',
'automotive_design',2010,#21);
#21=APPLICATION_CONTEXT(
'core data for automotive mechanical design processes');
#22=SHAPE_REPRESENTATION('n 01 025 0038nxm001-03-None',(#390),#594);
#23=OVER_RIDING_STYLED_ITEM('',(#48),#234,#46);
#24=OVER_RIDING_STYLED_ITEM('',(#49),#235,#46);
#25=OVER_RIDING_STYLED_ITEM('',(#50),#236,#46);
#26=OVER_RIDING_STYLED_ITEM('',(#51),#237,#46);
#27=OVER_RIDING_STYLED_ITEM('',(#52),#238,#46);
#28=OVER_RIDING_STYLED_ITEM('',(#53),#239,#46);
#29=OVER_RIDING_STYLED_ITEM('',(#54),#240,#46);
#30=OVER_RIDING_STYLED_ITEM('',(#55),#241,#46);
#31=OVER_RIDING_STYLED_ITEM('',(#56),#242,#46);
#32=OVER_RIDING_STYLED_ITEM('',(#57),#243,#46);
#33=OVER_RIDING_STYLED_ITEM('',(#58),#244,#46);
#34=OVER_RIDING_STYLED_ITEM('',(#59),#245,#46);
#35=OVER_RIDING_STYLED_ITEM('',(#60),#246,#46);
#36=OVER_RIDING_STYLED_ITEM('',(#61),#247,#46);
#37=OVER_RIDING_STYLED_ITEM('',(#62),#248,#46);
#38=OVER_RIDING_STYLED_ITEM('',(#63),#249,#46);
#39=OVER_RIDING_STYLED_ITEM('',(#64),#250,#46);
#40=OVER_RIDING_STYLED_ITEM('',(#65),#251,#46);
#41=OVER_RIDING_STYLED_ITEM('',(#66),#252,#46);
#42=OVER_RIDING_STYLED_ITEM('',(#67),#253,#46);
#43=DRAUGHTING_PRE_DEFINED_COLOUR('red');
#44=DRAUGHTING_PRE_DEFINED_COLOUR('magenta');
#45=PRESENTATION_LAYER_ASSIGNMENT('1','Layer 1',(#174));
#46=STYLED_ITEM('',(#47),#174);
#47=PRESENTATION_STYLE_ASSIGNMENT((#68));
#48=PRESENTATION_STYLE_ASSIGNMENT((#69));
#49=PRESENTATION_STYLE_ASSIGNMENT((#70));
#50=PRESENTATION_STYLE_ASSIGNMENT((#71));
#51=PRESENTATION_STYLE_ASSIGNMENT((#72));
#52=PRESENTATION_STYLE_ASSIGNMENT((#73));
#53=PRESENTATION_STYLE_ASSIGNMENT((#74));
#54=PRESENTATION_STYLE_ASSIGNMENT((#75));
#55=PRESENTATION_STYLE_ASSIGNMENT((#76));
#56=PRESENTATION_STYLE_ASSIGNMENT((#77));
#57=PRESENTATION_STYLE_ASSIGNMENT((#78));
#58=PRESENTATION_STYLE_ASSIGNMENT((#79));
#59=PRESENTATION_STYLE_ASSIGNMENT((#80));
#60=PRESENTATION_STYLE_ASSIGNMENT((#81));
#61=PRESENTATION_STYLE_ASSIGNMENT((#82));
#62=PRESENTATION_STYLE_ASSIGNMENT((#83));
#63=PRESENTATION_STYLE_ASSIGNMENT((#84));
#64=PRESENTATION_STYLE_ASSIGNMENT((#85));
#65=PRESENTATION_STYLE_ASSIGNMENT((#86));
#66=PRESENTATION_STYLE_ASSIGNMENT((#87));
#67=PRESENTATION_STYLE_ASSIGNMENT((#88));
#68=SURFACE_STYLE_USAGE(.BOTH.,#89);
#69=SURFACE_STYLE_USAGE(.BOTH.,#90);
#70=SURFACE_STYLE_USAGE(.BOTH.,#91);
#71=SURFACE_STYLE_USAGE(.BOTH.,#92);
#72=SURFACE_STYLE_USAGE(.BOTH.,#93);
#73=SURFACE_STYLE_USAGE(.BOTH.,#94);
#74=SURFACE_STYLE_USAGE(.BOTH.,#95);
#75=SURFACE_STYLE_USAGE(.BOTH.,#96);
#76=SURFACE_STYLE_USAGE(.BOTH.,#97);
#77=SURFACE_STYLE_USAGE(.BOTH.,#98);
#78=SURFACE_STYLE_USAGE(.BOTH.,#99);
#79=SURFACE_STYLE_USAGE(.BOTH.,#100);
#80=SURFACE_STYLE_USAGE(.BOTH.,#101);
#81=SURFACE_STYLE_USAGE(.BOTH.,#102);
#82=SURFACE_STYLE_USAGE(.BOTH.,#103);
#83=SURFACE_STYLE_USAGE(.BOTH.,#104);
#84=SURFACE_STYLE_USAGE(.BOTH.,#105);
#85=SURFACE_STYLE_USAGE(.BOTH.,#106);
#86=SURFACE_STYLE_USAGE(.BOTH.,#107);
#87=SURFACE_STYLE_USAGE(.BOTH.,#108);
#88=SURFACE_STYLE_USAGE(.BOTH.,#109);
#89=SURFACE_SIDE_STYLE('',(#110));
#90=SURFACE_SIDE_STYLE('',(#111));
#91=SURFACE_SIDE_STYLE('',(#112));
#92=SURFACE_SIDE_STYLE('',(#113));
#93=SURFACE_SIDE_STYLE('',(#114));
#94=SURFACE_SIDE_STYLE('',(#115));
#95=SURFACE_SIDE_STYLE('',(#116));
#96=SURFACE_SIDE_STYLE('',(#117));
#97=SURFACE_SIDE_STYLE('',(#118));
#98=SURFACE_SIDE_STYLE('',(#119));
#99=SURFACE_SIDE_STYLE('',(#120));
#100=SURFACE_SIDE_STYLE('',(#121));
#101=SURFACE_SIDE_STYLE('',(#122));
#102=SURFACE_SIDE_STYLE('',(#123));
#103=SURFACE_SIDE_STYLE('',(#124));
#104=SURFACE_SIDE_STYLE('',(#125));
#105=SURFACE_SIDE_STYLE('',(#126));
#106=SURFACE_SIDE_STYLE('',(#127));
#107=SURFACE_SIDE_STYLE('',(#128));
#108=SURFACE_SIDE_STYLE('',(#129));
#109=SURFACE_SIDE_STYLE('',(#130));
#110=SURFACE_STYLE_FILL_AREA(#131);
#111=SURFACE_STYLE_FILL_AREA(#132);
#112=SURFACE_STYLE_FILL_AREA(#133);
#113=SURFACE_STYLE_FILL_AREA(#134);
#114=SURFACE_STYLE_FILL_AREA(#135);
#115=SURFACE_STYLE_FILL_AREA(#136);
#116=SURFACE_STYLE_FILL_AREA(#137);
#117=SURFACE_STYLE_FILL_AREA(#138);
#118=SURFACE_STYLE_FILL_AREA(#139);
#119=SURFACE_STYLE_FILL_AREA(#140);
#120=SURFACE_STYLE_FILL_AREA(#141);
#121=SURFACE_STYLE_FILL_AREA(#142);
#122=SURFACE_STYLE_FILL_AREA(#143);
#123=SURFACE_STYLE_FILL_AREA(#144);
#124=SURFACE_STYLE_FILL_AREA(#145);
#125=SURFACE_STYLE_FILL_AREA(#146);
#126=SURFACE_STYLE_FILL_AREA(#147);
#127=SURFACE_STYLE_FILL_AREA(#148);
#128=SURFACE_STYLE_FILL_AREA(#149);
#129=SURFACE_STYLE_FILL_AREA(#150);
#130=SURFACE_STYLE_FILL_AREA(#151);
#131=FILL_AREA_STYLE('',(#152));
#132=FILL_AREA_STYLE('',(#153));
#133=FILL_AREA_STYLE('',(#154));
#134=FILL_AREA_STYLE('',(#155));
#135=FILL_AREA_STYLE('',(#156));
#136=FILL_AREA_STYLE('',(#157));
#137=FILL_AREA_STYLE('',(#158));
#138=FILL_AREA_STYLE('',(#159));
#139=FILL_AREA_STYLE('',(#160));
#140=FILL_AREA_STYLE('',(#161));
#141=FILL_AREA_STYLE('',(#162));
#142=FILL_AREA_STYLE('',(#163));
#143=FILL_AREA_STYLE('',(#164));
#144=FILL_AREA_STYLE('',(#165));
#145=FILL_AREA_STYLE('',(#166));
#146=FILL_AREA_STYLE('',(#167));
#147=FILL_AREA_STYLE('',(#168));
#148=FILL_AREA_STYLE('',(#169));
#149=FILL_AREA_STYLE('',(#170));
#150=FILL_AREA_STYLE('',(#171));
#151=FILL_AREA_STYLE('',(#172));
#152=FILL_AREA_STYLE_COLOUR('',#173);
#153=FILL_AREA_STYLE_COLOUR('',#43);
#154=FILL_AREA_STYLE_COLOUR('',#43);
#155=FILL_AREA_STYLE_COLOUR('',#43);
#156=FILL_AREA_STYLE_COLOUR('',#43);
#157=FILL_AREA_STYLE_COLOUR('',#43);
#158=FILL_AREA_STYLE_COLOUR('',#43);
#159=FILL_AREA_STYLE_COLOUR('',#44);
#160=FILL_AREA_STYLE_COLOUR('',#44);
#161=FILL_AREA_STYLE_COLOUR('',#43);
#162=FILL_AREA_STYLE_COLOUR('',#44);
#163=FILL_AREA_STYLE_COLOUR('',#44);
#164=FILL_AREA_STYLE_COLOUR('',#43);
#165=FILL_AREA_STYLE_COLOUR('',#44);
#166=FILL_AREA_STYLE_COLOUR('',#44);
#167=FILL_AREA_STYLE_COLOUR('',#43);
#168=FILL_AREA_STYLE_COLOUR('',#43);
#169=FILL_AREA_STYLE_COLOUR('',#43);
#170=FILL_AREA_STYLE_COLOUR('',#43);
#171=FILL_AREA_STYLE_COLOUR('',#43);
#172=FILL_AREA_STYLE_COLOUR('',#43);
#173=COLOUR_RGB('Mittleres Stahlblau',0.596063172350652,0.666666666666667,
0.686259250782025);
#174=MANIFOLD_SOLID_BREP('',#175);
#175=CLOSED_SHELL('',(#234,#235,#236,#237,#238,#239,#240,#241,#242,#243,
#244,#245,#246,#247,#248,#249,#250,#251,#252,#253));
#176=SPHERICAL_SURFACE('',#427,1.24999983871745);
#177=VERTEX_LOOP('',#352);
#178=B_SPLINE_CURVE_WITH_KNOTS('',3,(#579,#580,#581,#582,#583,#584,#585,
#586,#587,#588),.UNSPECIFIED.,.T.,.F.,(2,2,2,2,2,2,2),(-0.25,0.,0.25,0.5,
0.75,1.,1.25),.UNSPECIFIED.);
#179=(
BOUNDED_SURFACE()
B_SPLINE_SURFACE(2,2,((#558,#559,#560),(#561,#562,#563),(#564,#565,#566),
(#567,#568,#569),(#570,#571,#572),(#573,#574,#575),(#576,#577,#578)),
 .UNSPECIFIED.,.T.,.F.,.F.)
B_SPLINE_SURFACE_WITH_KNOTS((1,2,2,2,2,1),(3,3),(-0.333333333333334,0.,
0.333333333333333,0.666666666666666,1.,1.33333333333333),(0.,1.),
 .UNSPECIFIED.)
GEOMETRIC_REPRESENTATION_ITEM()
RATIONAL_B_SPLINE_SURFACE(((1.,0.866025403784439,1.),(0.5,0.43301270189222,
0.5),(1.,0.866025403784439,1.),(0.5,0.43301270189222,0.5),(1.,0.866025403784439,
1.),(0.5,0.43301270189222,0.5),(1.,0.866025403784439,1.)))
REPRESENTATION_ITEM('')
SURFACE()
);
#180=CONICAL_SURFACE('',#396,1.975,60.);
#181=CONICAL_SURFACE('',#404,2.1,45.);
#182=CONICAL_SURFACE('',#406,2.1,45.);
#183=CONICAL_SURFACE('',#410,2.1,45.);
#184=CONICAL_SURFACE('',#412,2.1,45.);
#185=CONICAL_SURFACE('',#416,2.1,44.9999999999999);
#186=CONICAL_SURFACE('',#418,2.1,45.0000000000002);
#187=CONICAL_SURFACE('',#422,2.14080892972014,19.9999999999999);
#188=CONICAL_SURFACE('',#424,1.49,60.);
#189=CYLINDRICAL_SURFACE('',#394,2.25);
#190=CYLINDRICAL_SURFACE('',#398,1.725);
#191=CYLINDRICAL_SURFACE('',#402,2.25);
#192=CYLINDRICAL_SURFACE('',#408,2.25);
#193=CYLINDRICAL_SURFACE('',#414,2.25);
#194=CYLINDRICAL_SURFACE('',#420,2.25);
#195=CYLINDRICAL_SURFACE('',#426,1.24);
#196=FACE_BOUND('',#258,.T.);
#197=FACE_BOUND('',#259,.T.);
#198=FACE_BOUND('',#260,.T.);
#199=FACE_BOUND('',#261,.T.);
#200=FACE_BOUND('',#262,.T.);
#201=FACE_BOUND('',#263,.T.);
#202=FACE_BOUND('',#264,.T.);
#203=FACE_BOUND('',#265,.T.);
#204=FACE_BOUND('',#266,.T.);
#205=FACE_BOUND('',#267,.T.);
#206=FACE_BOUND('',#268,.T.);
#207=FACE_BOUND('',#269,.T.);
#208=FACE_BOUND('',#270,.T.);
#209=FACE_BOUND('',#271,.T.);
#210=FACE_BOUND('',#272,.T.);
#211=FACE_BOUND('',#273,.T.);
#212=FACE_BOUND('',#274,.T.);
#213=FACE_BOUND('',#275,.T.);
#214=FACE_BOUND('',#276,.T.);
#215=FACE_BOUND('',#277,.T.);
#216=FACE_BOUND('',#278,.T.);
#217=FACE_BOUND('',#279,.T.);
#218=FACE_BOUND('',#280,.T.);
#219=FACE_BOUND('',#281,.T.);
#220=FACE_BOUND('',#282,.T.);
#221=FACE_BOUND('',#283,.T.);
#222=FACE_BOUND('',#284,.T.);
#223=FACE_BOUND('',#285,.T.);
#224=FACE_BOUND('',#286,.T.);
#225=FACE_BOUND('',#287,.T.);
#226=FACE_BOUND('',#288,.T.);
#227=FACE_BOUND('',#289,.T.);
#228=FACE_BOUND('',#290,.T.);
#229=FACE_BOUND('',#291,.T.);
#230=FACE_BOUND('',#292,.T.);
#231=FACE_BOUND('',#293,.T.);
#232=FACE_BOUND('',#177,.T.);
#233=FACE_BOUND('',#294,.T.);
#234=ADVANCED_FACE('',(#256),#254,.T.);
#235=ADVANCED_FACE('',(#196,#197),#189,.T.);
#236=ADVANCED_FACE('',(#198,#199),#180,.T.);
#237=ADVANCED_FACE('',(#200,#201),#190,.T.);
#238=ADVANCED_FACE('',(#202,#203),#255,.T.);
#239=ADVANCED_FACE('',(#204,#205),#191,.T.);
#240=ADVANCED_FACE('',(#206,#207),#181,.T.);
#241=ADVANCED_FACE('',(#208,#209),#182,.T.);
#242=ADVANCED_FACE('',(#210,#211),#192,.T.);
#243=ADVANCED_FACE('',(#212,#213),#183,.T.);
#244=ADVANCED_FACE('',(#214,#215),#184,.T.);
#245=ADVANCED_FACE('',(#216,#217),#193,.T.);
#246=ADVANCED_FACE('',(#218,#219),#185,.T.);
#247=ADVANCED_FACE('',(#220,#221),#186,.T.);
#248=ADVANCED_FACE('',(#222,#223),#194,.T.);
#249=ADVANCED_FACE('',(#224,#225),#187,.T.);
#250=ADVANCED_FACE('',(#226,#227),#188,.T.);
#251=ADVANCED_FACE('',(#228,#229),#179,.T.);
#252=ADVANCED_FACE('',(#230,#231),#195,.T.);
#253=ADVANCED_FACE('',(#232,#233),#176,.T.);
#254=PLANE('',#392);
#255=PLANE('',#400);
#256=FACE_OUTER_BOUND('',#257,.T.);
#257=EDGE_LOOP('',(#295));
#258=EDGE_LOOP('',(#296));
#259=EDGE_LOOP('',(#297));
#260=EDGE_LOOP('',(#298));
#261=EDGE_LOOP('',(#299));
#262=EDGE_LOOP('',(#300));
#263=EDGE_LOOP('',(#301));
#264=EDGE_LOOP('',(#302));
#265=EDGE_LOOP('',(#303));
#266=EDGE_LOOP('',(#304));
#267=EDGE_LOOP('',(#305));
#268=EDGE_LOOP('',(#306));
#269=EDGE_LOOP('',(#307));
#270=EDGE_LOOP('',(#308));
#271=EDGE_LOOP('',(#309));
#272=EDGE_LOOP('',(#310));
#273=EDGE_LOOP('',(#311));
#274=EDGE_LOOP('',(#312));
#275=EDGE_LOOP('',(#313));
#276=EDGE_LOOP('',(#314));
#277=EDGE_LOOP('',(#315));
#278=EDGE_LOOP('',(#316));
#279=EDGE_LOOP('',(#317));
#280=EDGE_LOOP('',(#318));
#281=EDGE_LOOP('',(#319));
#282=EDGE_LOOP('',(#320));
#283=EDGE_LOOP('',(#321));
#284=EDGE_LOOP('',(#322));
#285=EDGE_LOOP('',(#323));
#286=EDGE_LOOP('',(#324));
#287=EDGE_LOOP('',(#325));
#288=EDGE_LOOP('',(#326));
#289=EDGE_LOOP('',(#327));
#290=EDGE_LOOP('',(#328));
#291=EDGE_LOOP('',(#329));
#292=EDGE_LOOP('',(#330));
#293=EDGE_LOOP('',(#331));
#294=EDGE_LOOP('',(#332));
#295=ORIENTED_EDGE('',*,*,#353,.F.);
#296=ORIENTED_EDGE('',*,*,#354,.T.);
#297=ORIENTED_EDGE('',*,*,#353,.T.);
#298=ORIENTED_EDGE('',*,*,#355,.T.);
#299=ORIENTED_EDGE('',*,*,#354,.F.);
#300=ORIENTED_EDGE('',*,*,#356,.F.);
#301=ORIENTED_EDGE('',*,*,#355,.F.);
#302=ORIENTED_EDGE('',*,*,#356,.T.);
#303=ORIENTED_EDGE('',*,*,#357,.F.);
#304=ORIENTED_EDGE('',*,*,#357,.T.);
#305=ORIENTED_EDGE('',*,*,#358,.T.);
#306=ORIENTED_EDGE('',*,*,#358,.F.);
#307=ORIENTED_EDGE('',*,*,#359,.T.);
#308=ORIENTED_EDGE('',*,*,#359,.F.);
#309=ORIENTED_EDGE('',*,*,#360,.F.);
#310=ORIENTED_EDGE('',*,*,#361,.T.);
#311=ORIENTED_EDGE('',*,*,#360,.T.);
#312=ORIENTED_EDGE('',*,*,#361,.F.);
#313=ORIENTED_EDGE('',*,*,#362,.F.);
#314=ORIENTED_EDGE('',*,*,#362,.T.);
#315=ORIENTED_EDGE('',*,*,#363,.F.);
#316=ORIENTED_EDGE('',*,*,#364,.T.);
#317=ORIENTED_EDGE('',*,*,#363,.T.);
#318=ORIENTED_EDGE('',*,*,#364,.F.);
#319=ORIENTED_EDGE('',*,*,#365,.T.);
#320=ORIENTED_EDGE('',*,*,#365,.F.);
#321=ORIENTED_EDGE('',*,*,#366,.F.);
#322=ORIENTED_EDGE('',*,*,#367,.T.);
#323=ORIENTED_EDGE('',*,*,#366,.T.);
#324=ORIENTED_EDGE('',*,*,#368,.F.);
#325=ORIENTED_EDGE('',*,*,#367,.F.);
#326=ORIENTED_EDGE('',*,*,#369,.F.);
#327=ORIENTED_EDGE('',*,*,#368,.T.);
#328=ORIENTED_EDGE('',*,*,#370,.F.);
#329=ORIENTED_EDGE('',*,*,#369,.T.);
#330=ORIENTED_EDGE('',*,*,#371,.F.);
#331=ORIENTED_EDGE('',*,*,#370,.T.);
#332=ORIENTED_EDGE('',*,*,#371,.T.);
#333=VERTEX_POINT('',#506);
#334=VERTEX_POINT('',#509);
#335=VERTEX_POINT('',#512);
#336=VERTEX_POINT('',#515);
#337=VERTEX_POINT('',#518);
#338=VERTEX_POINT('',#521);
#339=VERTEX_POINT('',#524);
#340=VERTEX_POINT('',#527);
#341=VERTEX_POINT('',#530);
#342=VERTEX_POINT('',#533);
#343=VERTEX_POINT('',#536);
#344=VERTEX_POINT('',#539);
#345=VERTEX_POINT('',#542);
#346=VERTEX_POINT('',#545);
#347=VERTEX_POINT('',#548);
#348=VERTEX_POINT('',#551);
#349=VERTEX_POINT('',#554);
#350=VERTEX_POINT('',#557);
#351=VERTEX_POINT('',#589);
#352=VERTEX_POINT('',#591);
#353=EDGE_CURVE('',#333,#333,#372,.T.);
#354=EDGE_CURVE('',#334,#334,#373,.T.);
#355=EDGE_CURVE('',#335,#335,#374,.T.);
#356=EDGE_CURVE('',#336,#336,#375,.T.);
#357=EDGE_CURVE('',#337,#337,#376,.T.);
#358=EDGE_CURVE('',#338,#338,#377,.T.);
#359=EDGE_CURVE('',#339,#339,#378,.T.);
#360=EDGE_CURVE('',#340,#340,#379,.T.);
#361=EDGE_CURVE('',#341,#341,#380,.T.);
#362=EDGE_CURVE('',#342,#342,#381,.T.);
#363=EDGE_CURVE('',#343,#343,#382,.T.);
#364=EDGE_CURVE('',#344,#344,#383,.T.);
#365=EDGE_CURVE('',#345,#345,#384,.T.);
#366=EDGE_CURVE('',#346,#346,#385,.T.);
#367=EDGE_CURVE('',#347,#347,#386,.T.);
#368=EDGE_CURVE('',#348,#348,#387,.T.);
#369=EDGE_CURVE('',#349,#349,#388,.T.);
#370=EDGE_CURVE('',#350,#350,#389,.T.);
#371=EDGE_CURVE('',#351,#351,#178,.T.);
#372=CIRCLE('',#391,2.25);
#373=CIRCLE('',#393,2.25);
#374=CIRCLE('',#395,1.725);
#375=CIRCLE('',#397,1.725);
#376=CIRCLE('',#399,2.25);
#377=CIRCLE('',#401,2.25);
#378=CIRCLE('',#403,2.1);
#379=CIRCLE('',#405,2.25);
#380=CIRCLE('',#407,2.25);
#381=CIRCLE('',#409,2.1);
#382=CIRCLE('',#411,2.25);
#383=CIRCLE('',#413,2.25);
#384=CIRCLE('',#415,2.1);
#385=CIRCLE('',#417,2.25);
#386=CIRCLE('',#419,2.25);
#387=CIRCLE('',#421,2.14080892972014);
#388=CIRCLE('',#423,1.49);
#389=CIRCLE('',#425,1.24);
#390=AXIS2_PLACEMENT_3D('',#504,#428,#429);
#391=AXIS2_PLACEMENT_3D('',#505,#430,#431);
#392=AXIS2_PLACEMENT_3D('',#507,#432,#433);
#393=AXIS2_PLACEMENT_3D('',#508,#434,#435);
#394=AXIS2_PLACEMENT_3D('',#510,#436,#437);
#395=AXIS2_PLACEMENT_3D('',#511,#438,#439);
#396=AXIS2_PLACEMENT_3D('',#513,#440,#441);
#397=AXIS2_PLACEMENT_3D('',#514,#442,#443);
#398=AXIS2_PLACEMENT_3D('',#516,#444,#445);
#399=AXIS2_PLACEMENT_3D('',#517,#446,#447);
#400=AXIS2_PLACEMENT_3D('',#519,#448,#449);
#401=AXIS2_PLACEMENT_3D('',#520,#450,#451);
#402=AXIS2_PLACEMENT_3D('',#522,#452,#453);
#403=AXIS2_PLACEMENT_3D('',#523,#454,#455);
#404=AXIS2_PLACEMENT_3D('',#525,#456,#457);
#405=AXIS2_PLACEMENT_3D('',#526,#458,#459);
#406=AXIS2_PLACEMENT_3D('',#528,#460,#461);
#407=AXIS2_PLACEMENT_3D('',#529,#462,#463);
#408=AXIS2_PLACEMENT_3D('',#531,#464,#465);
#409=AXIS2_PLACEMENT_3D('',#532,#466,#467);
#410=AXIS2_PLACEMENT_3D('',#534,#468,#469);
#411=AXIS2_PLACEMENT_3D('',#535,#470,#471);
#412=AXIS2_PLACEMENT_3D('',#537,#472,#473);
#413=AXIS2_PLACEMENT_3D('',#538,#474,#475);
#414=AXIS2_PLACEMENT_3D('',#540,#476,#477);
#415=AXIS2_PLACEMENT_3D('',#541,#478,#479);
#416=AXIS2_PLACEMENT_3D('',#543,#480,#481);
#417=AXIS2_PLACEMENT_3D('',#544,#482,#483);
#418=AXIS2_PLACEMENT_3D('',#546,#484,#485);
#419=AXIS2_PLACEMENT_3D('',#547,#486,#487);
#420=AXIS2_PLACEMENT_3D('',#549,#488,#489);
#421=AXIS2_PLACEMENT_3D('',#550,#490,#491);
#422=AXIS2_PLACEMENT_3D('',#552,#492,#493);
#423=AXIS2_PLACEMENT_3D('',#553,#494,#495);
#424=AXIS2_PLACEMENT_3D('',#555,#496,#497);
#425=AXIS2_PLACEMENT_3D('',#556,#498,#499);
#426=AXIS2_PLACEMENT_3D('',#590,#500,#501);
#427=AXIS2_PLACEMENT_3D('',#592,#502,#503);
#428=DIRECTION('',(0.,0.,1.));
#429=DIRECTION('',(1.,0.,0.));
#430=DIRECTION('',(-2.59712136914387E-16,1.,5.13602651124132E-33));
#431=DIRECTION('',(1.,3.85494105772624E-16,0.));
#432=DIRECTION('',(0.,-1.,0.));
#433=DIRECTION('',(0.,0.,1.));
#434=DIRECTION('',(1.29856068457193E-16,-1.,9.24484772023437E-32));
#435=DIRECTION('',(1.,1.92747052886312E-16,7.14208376514563E-16));
#436=DIRECTION('',(0.,1.,0.));
#437=DIRECTION('',(1.,0.,0.));
#438=DIRECTION('',(0.,-1.,0.));
#439=DIRECTION('',(0.,0.,-1.));
#440=DIRECTION('',(0.,-1.,0.));
#441=DIRECTION('',(1.,1.78571817737817E-16,-7.09827610343684E-17));
#442=DIRECTION('',(5.58687109815397E-17,1.,-9.6767445973408E-17));
#443=DIRECTION('',(1.,0.,0.));
#444=DIRECTION('',(-1.2528756058142E-16,1.,1.56113099693561E-16));
#445=DIRECTION('',(1.,0.,0.));
#446=DIRECTION('',(-6.25964416140483E-17,1.,1.0842021724855E-16));
#447=DIRECTION('',(1.,9.6373526443156E-17,0.));
#448=DIRECTION('',(0.,-1.,0.));
#449=DIRECTION('',(0.,0.,1.));
#450=DIRECTION('',(-7.91505231823187E-17,-1.,-4.64374290579822E-32));
#451=DIRECTION('',(1.,-9.6373526443156E-17,5.54053662276231E-16));
#452=DIRECTION('',(-1.8134904719519E-16,1.,1.0842021724855E-16));
#453=DIRECTION('',(1.,1.92747052886312E-16,0.));
#454=DIRECTION('',(0.,-1.,0.));
#455=DIRECTION('',(1.,0.,7.63237187829502E-16));
#456=DIRECTION('',(0.,-1.,0.));
#457=DIRECTION('',(1.,-4.8903241389427E-17,-8.18798515679159E-17));
#458=DIRECTION('',(0.,1.,0.));
#459=DIRECTION('',(1.,0.,0.));
#460=DIRECTION('',(0.,1.,0.));
#461=DIRECTION('',(1.,6.18864028202483E-17,-8.18798515679159E-17));
#462=DIRECTION('',(0.,-1.,0.));
#463=DIRECTION('',(1.,0.,5.54053662276231E-16));
#464=DIRECTION('',(-1.8134904719519E-16,1.,1.0842021724855E-16));
#465=DIRECTION('',(1.,1.92747052886312E-16,0.));
#466=DIRECTION('',(0.,1.,0.));
#467=DIRECTION('',(1.,0.,0.));
#468=DIRECTION('',(0.,-1.,2.55548902780563E-16));
#469=DIRECTION('',(1.,-2.25474236848597E-16,-8.18798515679159E-17));
#470=DIRECTION('',(2.86648806710083E-16,1.,9.03500841343587E-17));
#471=DIRECTION('',(1.,-1.92747052886312E-16,0.));
#472=DIRECTION('',(0.,1.,1.27774451390281E-16));
#473=DIRECTION('',(1.,-3.8949484292464E-18,-8.18798515679157E-17));
#474=DIRECTION('',(-8.69894529224261E-17,-1.,1.23515303010605E-16));
#475=DIRECTION('',(1.,0.,5.5405366227623E-16));
#476=DIRECTION('',(-1.8134904719519E-16,1.,1.0842021724855E-16));
#477=DIRECTION('',(1.,1.92747052886312E-16,0.));
#478=DIRECTION('',(-9.32029852740276E-17,-1.,1.32337824654219E-16));
#479=DIRECTION('',(1.,0.,7.63237187829498E-16));
#480=DIRECTION('',(0.,-1.,0.));
#481=DIRECTION('',(1.,-1.62722289932961E-16,-8.18798515679157E-17));
#482=DIRECTION('',(1.58301046364636E-16,1.,-4.88815042715598E-33));
#483=DIRECTION('',(1.,-1.92747052886312E-16,0.));
#484=DIRECTION('',(0.,1.,0.));
#485=DIRECTION('',(1.,5.88569984863895E-17,0.));
#486=DIRECTION('',(-4.67614749737577E-17,-1.,1.65682585904919E-16));
#487=DIRECTION('',(1.,0.,7.1209180272998E-16));
#488=DIRECTION('',(-1.8134904719519E-16,1.,1.0842021724855E-16));
#489=DIRECTION('',(1.,1.92747052886312E-16,0.));
#490=DIRECTION('',(0.,1.,0.));
#491=DIRECTION('',(1.,0.,0.));
#492=DIRECTION('',(0.,-1.,0.));
#493=DIRECTION('',(1.,-1.23194345577991E-16,-7.29800172035532E-17));
#494=DIRECTION('',(3.72896230596944E-16,1.,1.9195260665227E-33));
#495=DIRECTION('',(1.,-5.82121971804298E-16,0.));
#496=DIRECTION('',(0.,-1.,0.));
#497=DIRECTION('',(1.,-3.35728887170771E-16,-8.71320511952828E-17));
#498=DIRECTION('',(-2.5906861947085E-16,1.,-2.69232006942143E-16));
#499=DIRECTION('',(1.,0.,0.));
#500=DIRECTION('',(8.29019582306719E-16,1.,-4.18497386135204E-32));
#501=DIRECTION('',(1.,-6.99485272571293E-16,0.));
#502=DIRECTION('',(2.42861317972187E-15,0.999999999999999,1.18397013700481E-31));
#503=DIRECTION('',(1.,-2.77555791968213E-15,0.));
#504=CARTESIAN_POINT('',(0.,0.,0.));
#505=CARTESIAN_POINT('',(-1.56257522758097,-5.67994986711088,0.));
#506=CARTESIAN_POINT('',(0.687424772419035,-5.67994986711088,0.));
#507=CARTESIAN_POINT('',(0.912424772419035,-5.67994986711088,-2.475));
#508=CARTESIAN_POINT('',(-1.56257522758097,-3.08305875843544,-1.60696884715777E-15));
#509=CARTESIAN_POINT('',(0.687424772419035,-3.08305875843544,-3.2740809054583E-30));
#510=CARTESIAN_POINT('',(-1.56257522758097,-5.67994986711088,0.));
#511=CARTESIAN_POINT('',(-1.56257522758097,-2.77994986711088,1.49951082685103E-16));
#512=CARTESIAN_POINT('',(-1.56257522758097,-2.77994986711088,-1.725));
#513=CARTESIAN_POINT('',(-1.56257522758097,-2.92428743440829,1.49951082685103E-16));
#514=CARTESIAN_POINT('',(-1.56257522758097,1.82005013288912,0.));
#515=CARTESIAN_POINT('',(0.162424772419035,1.82005013288912,0.));
#516=CARTESIAN_POINT('',(-1.56257522758097,-2.34693716521867,-3.25260651745651E-16));
#517=CARTESIAN_POINT('',(-1.56257522758097,1.82005013288912,0.));
#518=CARTESIAN_POINT('',(0.687424772419035,1.82005013288912,0.));
#519=CARTESIAN_POINT('',(0.912424772419036,1.82005013288912,-2.475));
#520=CARTESIAN_POINT('',(-1.56257522758097,1.87004981112041,-1.31245631545988E-15));
#521=CARTESIAN_POINT('',(0.687424772419035,1.87004981112041,-6.58355753383603E-17));
#522=CARTESIAN_POINT('',(-1.56257522758097,1.82005013288912,-1.0842021724855E-16));
#523=CARTESIAN_POINT('',(-1.56257522758097,2.02004981112041,-1.60555397608033E-15));
#524=CARTESIAN_POINT('',(0.537424772419035,2.02004981112041,-2.7558816383707E-18));
#525=CARTESIAN_POINT('',(-1.56257522758097,2.02004981112041,1.12253101821858E-16));
#526=CARTESIAN_POINT('',(-1.56257522758097,2.17004981112041,-2.75588163836694E-18));
#527=CARTESIAN_POINT('',(0.687424772419035,2.17004981112041,-2.75588163836694E-18));
#528=CARTESIAN_POINT('',(-1.56257522758097,2.02004981112041,1.7533279552185E-16));
#529=CARTESIAN_POINT('',(-1.56257522758097,2.47004981112041,-1.32146770027416E-15));
#530=CARTESIAN_POINT('',(0.687424772419035,2.47004981112041,-7.48469601526444E-17));
#531=CARTESIAN_POINT('',(-1.56257522758097,1.82005013288912,-1.0842021724855E-16));
#532=CARTESIAN_POINT('',(-1.56257522758097,2.62004981112041,-7.48469601526433E-17));
#533=CARTESIAN_POINT('',(0.537424772419035,2.62004981112041,-7.48469601526433E-17));
#534=CARTESIAN_POINT('',(-1.56257522758097,2.62004981112041,8.40755492990316E-17));
#535=CARTESIAN_POINT('',(-1.56257522758097,2.77005013288912,-4.55599643388547E-17));
#536=CARTESIAN_POINT('',(0.687424772419035,2.77005013288912,-4.55599643388547E-17));
#537=CARTESIAN_POINT('',(-1.56257522758097,2.62004981112041,1.56738326853294E-16));
#538=CARTESIAN_POINT('',(-1.56257522758097,3.07005013288912,-1.33047908992108E-15));
#539=CARTESIAN_POINT('',(0.687424772419035,3.07005013288912,-8.38583497995627E-17));
#540=CARTESIAN_POINT('',(-1.56257522758097,1.82005013288912,-1.0842021724855E-16));
#541=CARTESIAN_POINT('',(-1.56257522758097,3.22005013288911,-1.62357675054152E-15));
#542=CARTESIAN_POINT('',(0.537424772419035,3.22005013288911,-2.07786560995743E-17));
#543=CARTESIAN_POINT('',(-1.56257522758097,3.22005013288911,9.42303273606527E-17));
#544=CARTESIAN_POINT('',(-1.56257522758097,3.37005013288912,-2.07786560995724E-17));
#545=CARTESIAN_POINT('',(0.687424772419035,3.37005013288911,-2.07786560995724E-17));
#546=CARTESIAN_POINT('',(-1.56257522758097,3.22005013288911,-2.07786560995724E-17));
#547=CARTESIAN_POINT('',(-1.56257522758097,3.82005013288912,-1.60220655614246E-15));
#548=CARTESIAN_POINT('',(0.687424772419035,3.82005013288912,0.));
#549=CARTESIAN_POINT('',(-1.56257522758097,1.82005013288912,-1.0842021724855E-16));
#550=CARTESIAN_POINT('',(-1.56257522758097,4.12005013288912,0.));
#551=CARTESIAN_POINT('',(0.578233702139175,4.12005013288912,0.));
#552=CARTESIAN_POINT('',(-1.56257522758097,4.12005013288912,1.60220655614246E-16));
#553=CARTESIAN_POINT('',(-1.56257522758097,4.49579484365406,0.));
#554=CARTESIAN_POINT('',(-0.072575227580965,4.49579484365406,0.));
#555=CARTESIAN_POINT('',(-1.56257522758097,4.49579484365406,1.58179914772333E-16));
#556=CARTESIAN_POINT('',(-1.56257522758097,4.92880754554628,0.));
#557=CARTESIAN_POINT('',(-0.322575227580965,4.92880754554628,0.));
#558=CARTESIAN_POINT('',(-0.0725752275809661,4.49579484365406,0.));
#559=CARTESIAN_POINT('',(-0.322575227580966,4.64013241095147,0.));
#560=CARTESIAN_POINT('',(-0.322575227580965,4.92880754554628,0.));
#561=CARTESIAN_POINT('',(-0.0725752275809661,4.49579484365406,-2.58075570327762));
#562=CARTESIAN_POINT('',(-0.322575227580965,4.64013241095145,-2.1477430013854));
#563=CARTESIAN_POINT('',(-0.322575227580965,4.92880754554628,-2.1477430013854));
#564=CARTESIAN_POINT('',(-2.30757522758097,4.49579484365406,-1.29037785163881));
#565=CARTESIAN_POINT('',(-2.18257522758097,4.64013241095147,-1.0738715006927));
#566=CARTESIAN_POINT('',(-2.18257522758096,4.92880754554628,-1.0738715006927));
#567=CARTESIAN_POINT('',(-4.54257522758096,4.49579484365406,-1.30104260698261E-15));
#568=CARTESIAN_POINT('',(-4.04257522758095,4.64013241095145,-1.08274686755599E-15));
#569=CARTESIAN_POINT('',(-4.04257522758096,4.92880754554628,-1.08274686755599E-15));
#570=CARTESIAN_POINT('',(-2.30757522758097,4.49579484365406,1.29037785163881));
#571=CARTESIAN_POINT('',(-2.18257522758097,4.64013241095147,1.0738715006927));
#572=CARTESIAN_POINT('',(-2.18257522758096,4.92880754554628,1.0738715006927));
#573=CARTESIAN_POINT('',(-0.0725752275809685,4.49579484365406,2.58075570327762));
#574=CARTESIAN_POINT('',(-0.322575227580967,4.64013241095145,2.1477430013854));
#575=CARTESIAN_POINT('',(-0.322575227580967,4.92880754554628,2.1477430013854));
#576=CARTESIAN_POINT('',(-0.0725752275809661,4.49579484365406,0.));
#577=CARTESIAN_POINT('',(-0.322575227580966,4.64013241095147,0.));
#578=CARTESIAN_POINT('',(-0.322575227580965,4.92880754554628,0.));
#579=CARTESIAN_POINT('',(-0.322575293479494,18.0700501328892,0.654498385050518));
#580=CARTESIAN_POINT('',(-0.322575293479493,18.0700501328891,-0.654498385050518));
#581=CARTESIAN_POINT('',(-0.918076747146407,18.0700501328892,-1.24999983871743));
#582=CARTESIAN_POINT('',(-2.22707351724744,18.0700501328891,-1.24999983871743));
#583=CARTESIAN_POINT('',(-2.82257497091436,18.0700501328892,-0.654498385050516));
#584=CARTESIAN_POINT('',(-2.82257497091435,18.0700501328892,0.654498385050521));
#585=CARTESIAN_POINT('',(-2.22707351724744,18.0700501328892,1.24999983871743));
#586=CARTESIAN_POINT('',(-0.918076747146402,18.0700501328891,1.24999983871743));
#587=CARTESIAN_POINT('',(-0.322575293479494,18.0700501328892,0.654498385050518));
#588=CARTESIAN_POINT('',(-0.322575293479493,18.0700501328891,-0.654498385050518));
#589=CARTESIAN_POINT('',(-0.322575260530226,18.0700501328891,-2.62247637330165E-15));
#590=CARTESIAN_POINT('',(-1.56257522758097,4.92880754554628,2.7497878366858E-31));
#591=CARTESIAN_POINT('',(-1.56257522758097,19.3200501328891,0.));
#592=CARTESIAN_POINT('',(-1.57257513219693,18.0700503593144,0.));
#593=MECHANICAL_DESIGN_GEOMETRIC_PRESENTATION_REPRESENTATION('',(#46,#23,
#24,#25,#26,#27,#28,#29,#30,#31,#32,#33,#34,#35,#36,#37,#38,#39,#40,#41,
#42),#594);
#594=(
GEOMETRIC_REPRESENTATION_CONTEXT(3)
GLOBAL_UNCERTAINTY_ASSIGNED_CONTEXT((#595))
GLOBAL_UNIT_ASSIGNED_CONTEXT((#601,#597,#596))
REPRESENTATION_CONTEXT('n 01 025 0038 x','TOP_LEVEL_ASSEMBLY_PART')
);
#595=UNCERTAINTY_MEASURE_WITH_UNIT(LENGTH_MEASURE(0.0508),#601,
'DISTANCE_ACCURACY_VALUE','Maximum Tolerance applied to model');
#596=(
NAMED_UNIT(*)
SI_UNIT($,.STERADIAN.)
SOLID_ANGLE_UNIT()
);
#597=(
CONVERSION_BASED_UNIT('DEGREE',#599)
NAMED_UNIT(#598)
PLANE_ANGLE_UNIT()
);
#598=DIMENSIONAL_EXPONENTS(0.,0.,0.,0.,0.,0.,0.);
#599=PLANE_ANGLE_MEASURE_WITH_UNIT(PLANE_ANGLE_MEASURE(0.0174532925),#600);
#600=(
NAMED_UNIT(*)
PLANE_ANGLE_UNIT()
SI_UNIT($,.RADIAN.)
);
#601=(
LENGTH_UNIT()
NAMED_UNIT(*)
SI_UNIT(.MILLI.,.METRE.)
);
ENDSEC;
END-ISO-10303-21;
