ISO-10303-21;
HEADER;
/* Generated by software containing ST-Developer
 * from STEP Tools, Inc. (www.steptools.com) 
 */
/* OPTION: using custom schema-name function */

FILE_DESCRIPTION(
/* description */ (''),
/* implementation_level */ '2;1');

FILE_NAME(
/* name */ 'n 01 025 0039 x.stp',
/* time_stamp */ '2018-09-25T11:22:09+02:00',
/* author */ (''),
/* organization */ (''),
/* preprocessor_version */ 'ST-DEVELOPER v16',
/* originating_system */ 'SIEMENS PLM Software NX 11.0',
/* authorisation */ '');

FILE_SCHEMA (('AUTOMOTIVE_DESIGN { 1 0 10303 214 3 1 1 1 }'));
ENDSEC;

DATA;
#10=SHAPE_REPRESENTATION_RELATIONSHIP('None',
'relationship between n 01 025 0039nxm001-03-None and n 01 025 0039nxm
001-03-None',#22,#11);
#11=ADVANCED_BREP_SHAPE_REPRESENTATION('n 01 025 0039nxm001-03-None',(#103),
#343);
#12=SHAPE_DEFINITION_REPRESENTATION(#13,#22);
#13=PRODUCT_DEFINITION_SHAPE('','',#14);
#14=PRODUCT_DEFINITION(' ','',#16,#15);
#15=PRODUCT_DEFINITION_CONTEXT('part definition',#21,'design');
#16=PRODUCT_DEFINITION_FORMATION_WITH_SPECIFIED_SOURCE(' ',' ',#18,
 .NOT_KNOWN.);
#17=PRODUCT_RELATED_PRODUCT_CATEGORY('part','',(#18));
#18=PRODUCT('n 01 025 0039nxm001-03','n 01 025 0039nxm001-03',' ',(#19));
#19=PRODUCT_CONTEXT(' ',#21,'mechanical');
#20=APPLICATION_PROTOCOL_DEFINITION('international standard',
'automotive_design',2010,#21);
#21=APPLICATION_CONTEXT(
'core data for automotive mechanical design processes');
#22=SHAPE_REPRESENTATION('n 01 025 0039nxm001-03-None',(#220),#343);
#23=OVER_RIDING_STYLED_ITEM('',(#37),#125,#35);
#24=OVER_RIDING_STYLED_ITEM('',(#38),#126,#35);
#25=OVER_RIDING_STYLED_ITEM('',(#39),#127,#35);
#26=OVER_RIDING_STYLED_ITEM('',(#40),#128,#35);
#27=OVER_RIDING_STYLED_ITEM('',(#41),#129,#35);
#28=OVER_RIDING_STYLED_ITEM('',(#42),#130,#35);
#29=OVER_RIDING_STYLED_ITEM('',(#43),#131,#35);
#30=OVER_RIDING_STYLED_ITEM('',(#44),#132,#35);
#31=OVER_RIDING_STYLED_ITEM('',(#45),#133,#35);
#32=OVER_RIDING_STYLED_ITEM('',(#46),#134,#35);
#33=DRAUGHTING_PRE_DEFINED_COLOUR('red');
#34=PRESENTATION_LAYER_ASSIGNMENT('1','Layer 1',(#103));
#35=STYLED_ITEM('',(#36),#103);
#36=PRESENTATION_STYLE_ASSIGNMENT((#47));
#37=PRESENTATION_STYLE_ASSIGNMENT((#48));
#38=PRESENTATION_STYLE_ASSIGNMENT((#49));
#39=PRESENTATION_STYLE_ASSIGNMENT((#50));
#40=PRESENTATION_STYLE_ASSIGNMENT((#51));
#41=PRESENTATION_STYLE_ASSIGNMENT((#52));
#42=PRESENTATION_STYLE_ASSIGNMENT((#53));
#43=PRESENTATION_STYLE_ASSIGNMENT((#54));
#44=PRESENTATION_STYLE_ASSIGNMENT((#55));
#45=PRESENTATION_STYLE_ASSIGNMENT((#56));
#46=PRESENTATION_STYLE_ASSIGNMENT((#57));
#47=SURFACE_STYLE_USAGE(.BOTH.,#58);
#48=SURFACE_STYLE_USAGE(.BOTH.,#59);
#49=SURFACE_STYLE_USAGE(.BOTH.,#60);
#50=SURFACE_STYLE_USAGE(.BOTH.,#61);
#51=SURFACE_STYLE_USAGE(.BOTH.,#62);
#52=SURFACE_STYLE_USAGE(.BOTH.,#63);
#53=SURFACE_STYLE_USAGE(.BOTH.,#64);
#54=SURFACE_STYLE_USAGE(.BOTH.,#65);
#55=SURFACE_STYLE_USAGE(.BOTH.,#66);
#56=SURFACE_STYLE_USAGE(.BOTH.,#67);
#57=SURFACE_STYLE_USAGE(.BOTH.,#68);
#58=SURFACE_SIDE_STYLE('',(#69));
#59=SURFACE_SIDE_STYLE('',(#70));
#60=SURFACE_SIDE_STYLE('',(#71));
#61=SURFACE_SIDE_STYLE('',(#72));
#62=SURFACE_SIDE_STYLE('',(#73));
#63=SURFACE_SIDE_STYLE('',(#74));
#64=SURFACE_SIDE_STYLE('',(#75));
#65=SURFACE_SIDE_STYLE('',(#76));
#66=SURFACE_SIDE_STYLE('',(#77));
#67=SURFACE_SIDE_STYLE('',(#78));
#68=SURFACE_SIDE_STYLE('',(#79));
#69=SURFACE_STYLE_FILL_AREA(#80);
#70=SURFACE_STYLE_FILL_AREA(#81);
#71=SURFACE_STYLE_FILL_AREA(#82);
#72=SURFACE_STYLE_FILL_AREA(#83);
#73=SURFACE_STYLE_FILL_AREA(#84);
#74=SURFACE_STYLE_FILL_AREA(#85);
#75=SURFACE_STYLE_FILL_AREA(#86);
#76=SURFACE_STYLE_FILL_AREA(#87);
#77=SURFACE_STYLE_FILL_AREA(#88);
#78=SURFACE_STYLE_FILL_AREA(#89);
#79=SURFACE_STYLE_FILL_AREA(#90);
#80=FILL_AREA_STYLE('',(#91));
#81=FILL_AREA_STYLE('',(#92));
#82=FILL_AREA_STYLE('',(#93));
#83=FILL_AREA_STYLE('',(#94));
#84=FILL_AREA_STYLE('',(#95));
#85=FILL_AREA_STYLE('',(#96));
#86=FILL_AREA_STYLE('',(#97));
#87=FILL_AREA_STYLE('',(#98));
#88=FILL_AREA_STYLE('',(#99));
#89=FILL_AREA_STYLE('',(#100));
#90=FILL_AREA_STYLE('',(#101));
#91=FILL_AREA_STYLE_COLOUR('',#102);
#92=FILL_AREA_STYLE_COLOUR('',#33);
#93=FILL_AREA_STYLE_COLOUR('',#33);
#94=FILL_AREA_STYLE_COLOUR('',#33);
#95=FILL_AREA_STYLE_COLOUR('',#33);
#96=FILL_AREA_STYLE_COLOUR('',#33);
#97=FILL_AREA_STYLE_COLOUR('',#33);
#98=FILL_AREA_STYLE_COLOUR('',#33);
#99=FILL_AREA_STYLE_COLOUR('',#33);
#100=FILL_AREA_STYLE_COLOUR('',#33);
#101=FILL_AREA_STYLE_COLOUR('',#33);
#102=COLOUR_RGB('Mittleres Stahlblau',0.596063172350652,0.666666666666667,
0.686259250782025);
#103=MANIFOLD_SOLID_BREP('',#104);
#104=CLOSED_SHELL('',(#125,#126,#127,#128,#129,#130,#131,#132,#133,#134,
#135));
#105=FACE_OUTER_BOUND('',#150,.T.);
#106=PLANE('',#232);
#107=PLANE('',#234);
#108=CONICAL_SURFACE('',#226,1.49,60.);
#109=CONICAL_SURFACE('',#228,2.14080892971338,19.9999999999999);
#110=CONICAL_SURFACE('',#239,2.25,60.);
#111=(
BOUNDED_SURFACE()
B_SPLINE_SURFACE(2,2,((#299,#300,#301),(#302,#303,#304),(#305,#306,#307),
(#308,#309,#310),(#311,#312,#313),(#314,#315,#316),(#317,#318,#319)),
 .UNSPECIFIED.,.T.,.F.,.F.)
B_SPLINE_SURFACE_WITH_KNOTS((1,2,2,2,2,1),(3,3),(-0.333333333333333,0.,
0.333333333333333,0.666666666666667,1.,1.33333333333333),(0.,1.),
 .UNSPECIFIED.)
GEOMETRIC_REPRESENTATION_ITEM()
RATIONAL_B_SPLINE_SURFACE(((1.,0.866025403784439,1.),(0.5,0.43301270189222,
0.5),(1.,0.866025403784439,1.),(0.5,0.43301270189222,0.5),(1.,0.866025403784439,
1.),(0.5,0.43301270189222,0.5),(1.,0.866025403784439,1.)))
REPRESENTATION_ITEM('')
SURFACE()
);
#112=CYLINDRICAL_SURFACE('',#223,1.24);
#113=CYLINDRICAL_SURFACE('',#230,2.25);
#114=CYLINDRICAL_SURFACE('',#236,2.25);
#115=CYLINDRICAL_SURFACE('',#238,2.);
#116=CIRCLE('',#222,1.24);
#117=CIRCLE('',#224,1.49);
#118=CIRCLE('',#225,2.14080892971338);
#119=CIRCLE('',#227,2.25);
#120=CIRCLE('',#229,2.25);
#121=CIRCLE('',#231,2.);
#122=CIRCLE('',#233,2.25);
#123=CIRCLE('',#235,2.25);
#124=CIRCLE('',#237,2.);
#125=ADVANCED_FACE('',(#188,#189),#136,.T.);
#126=ADVANCED_FACE('',(#190,#191),#112,.T.);
#127=ADVANCED_FACE('',(#192,#193),#111,.T.);
#128=ADVANCED_FACE('',(#194,#195),#108,.T.);
#129=ADVANCED_FACE('',(#196,#197),#109,.T.);
#130=ADVANCED_FACE('',(#198,#199),#113,.T.);
#131=ADVANCED_FACE('',(#200,#201),#106,.T.);
#132=ADVANCED_FACE('',(#105),#107,.T.);
#133=ADVANCED_FACE('',(#202,#203),#114,.T.);
#134=ADVANCED_FACE('',(#204,#205),#115,.T.);
#135=ADVANCED_FACE('',(#206,#207),#110,.T.);
#136=SPHERICAL_SURFACE('',#221,1.24999983871746);
#137=EDGE_LOOP('',(#157));
#138=EDGE_LOOP('',(#158));
#139=EDGE_LOOP('',(#159));
#140=EDGE_LOOP('',(#160));
#141=EDGE_LOOP('',(#161));
#142=EDGE_LOOP('',(#162));
#143=EDGE_LOOP('',(#163));
#144=EDGE_LOOP('',(#164));
#145=EDGE_LOOP('',(#165));
#146=EDGE_LOOP('',(#166));
#147=EDGE_LOOP('',(#167));
#148=EDGE_LOOP('',(#168));
#149=EDGE_LOOP('',(#169));
#150=EDGE_LOOP('',(#170));
#151=EDGE_LOOP('',(#171));
#152=EDGE_LOOP('',(#172));
#153=EDGE_LOOP('',(#173));
#154=EDGE_LOOP('',(#174));
#155=EDGE_LOOP('',(#175));
#156=EDGE_LOOP('',(#176));
#157=ORIENTED_EDGE('',*,*,#177,.T.);
#158=ORIENTED_EDGE('',*,*,#177,.F.);
#159=ORIENTED_EDGE('',*,*,#178,.T.);
#160=ORIENTED_EDGE('',*,*,#178,.F.);
#161=ORIENTED_EDGE('',*,*,#179,.T.);
#162=ORIENTED_EDGE('',*,*,#179,.F.);
#163=ORIENTED_EDGE('',*,*,#180,.T.);
#164=ORIENTED_EDGE('',*,*,#180,.F.);
#165=ORIENTED_EDGE('',*,*,#181,.F.);
#166=ORIENTED_EDGE('',*,*,#181,.T.);
#167=ORIENTED_EDGE('',*,*,#182,.T.);
#168=ORIENTED_EDGE('',*,*,#183,.T.);
#169=ORIENTED_EDGE('',*,*,#182,.F.);
#170=ORIENTED_EDGE('',*,*,#184,.F.);
#171=ORIENTED_EDGE('',*,*,#185,.F.);
#172=ORIENTED_EDGE('',*,*,#184,.T.);
#173=ORIENTED_EDGE('',*,*,#186,.T.);
#174=ORIENTED_EDGE('',*,*,#183,.F.);
#175=ORIENTED_EDGE('',*,*,#186,.F.);
#176=ORIENTED_EDGE('',*,*,#185,.T.);
#177=EDGE_CURVE('',#210,#210,#187,.T.);
#178=EDGE_CURVE('',#211,#211,#116,.T.);
#179=EDGE_CURVE('',#212,#212,#117,.T.);
#180=EDGE_CURVE('',#213,#213,#118,.T.);
#181=EDGE_CURVE('',#214,#214,#119,.T.);
#182=EDGE_CURVE('',#215,#215,#120,.T.);
#183=EDGE_CURVE('',#216,#216,#121,.T.);
#184=EDGE_CURVE('',#217,#217,#122,.T.);
#185=EDGE_CURVE('',#218,#218,#123,.T.);
#186=EDGE_CURVE('',#219,#219,#124,.T.);
#187=B_SPLINE_CURVE_WITH_KNOTS('',3,(#282,#283,#284,#285,#286,#287,#288,
#289,#290,#291),.UNSPECIFIED.,.T.,.F.,(2,2,2,2,2,2,2),(-0.25,0.,0.25,0.5,
0.75,1.,1.25),.UNSPECIFIED.);
#188=FACE_BOUND('',#208,.T.);
#189=FACE_BOUND('',#137,.T.);
#190=FACE_BOUND('',#138,.T.);
#191=FACE_BOUND('',#139,.T.);
#192=FACE_BOUND('',#140,.T.);
#193=FACE_BOUND('',#141,.T.);
#194=FACE_BOUND('',#142,.T.);
#195=FACE_BOUND('',#143,.T.);
#196=FACE_BOUND('',#144,.T.);
#197=FACE_BOUND('',#145,.T.);
#198=FACE_BOUND('',#146,.T.);
#199=FACE_BOUND('',#147,.T.);
#200=FACE_BOUND('',#148,.T.);
#201=FACE_BOUND('',#149,.T.);
#202=FACE_BOUND('',#151,.T.);
#203=FACE_BOUND('',#152,.T.);
#204=FACE_BOUND('',#153,.T.);
#205=FACE_BOUND('',#154,.T.);
#206=FACE_BOUND('',#155,.T.);
#207=FACE_BOUND('',#156,.T.);
#208=VERTEX_LOOP('',#209);
#209=VERTEX_POINT('',#281);
#210=VERTEX_POINT('',#292);
#211=VERTEX_POINT('',#295);
#212=VERTEX_POINT('',#298);
#213=VERTEX_POINT('',#321);
#214=VERTEX_POINT('',#324);
#215=VERTEX_POINT('',#327);
#216=VERTEX_POINT('',#330);
#217=VERTEX_POINT('',#333);
#218=VERTEX_POINT('',#336);
#219=VERTEX_POINT('',#339);
#220=AXIS2_PLACEMENT_3D('',#280,#240,#241);
#221=AXIS2_PLACEMENT_3D('',#293,#242,#243);
#222=AXIS2_PLACEMENT_3D('',#294,#244,#245);
#223=AXIS2_PLACEMENT_3D('',#296,#246,#247);
#224=AXIS2_PLACEMENT_3D('',#297,#248,#249);
#225=AXIS2_PLACEMENT_3D('',#320,#250,#251);
#226=AXIS2_PLACEMENT_3D('',#322,#252,#253);
#227=AXIS2_PLACEMENT_3D('',#323,#254,#255);
#228=AXIS2_PLACEMENT_3D('',#325,#256,#257);
#229=AXIS2_PLACEMENT_3D('',#326,#258,#259);
#230=AXIS2_PLACEMENT_3D('',#328,#260,#261);
#231=AXIS2_PLACEMENT_3D('',#329,#262,#263);
#232=AXIS2_PLACEMENT_3D('',#331,#264,#265);
#233=AXIS2_PLACEMENT_3D('',#332,#266,#267);
#234=AXIS2_PLACEMENT_3D('',#334,#268,#269);
#235=AXIS2_PLACEMENT_3D('',#335,#270,#271);
#236=AXIS2_PLACEMENT_3D('',#337,#272,#273);
#237=AXIS2_PLACEMENT_3D('',#338,#274,#275);
#238=AXIS2_PLACEMENT_3D('',#340,#276,#277);
#239=AXIS2_PLACEMENT_3D('',#341,#278,#279);
#240=DIRECTION('',(0.,0.,1.));
#241=DIRECTION('',(1.,0.,0.));
#242=DIRECTION('',(-4.51028161948344E-15,0.999999999999999,-9.32023641153752E-31));
#243=DIRECTION('',(1.,5.55111583936423E-15,2.47458589050579E-16));
#244=DIRECTION('',(-4.1450979115336E-16,1.,2.09248693067602E-32));
#245=DIRECTION('',(1.,6.99485272571293E-16,0.));
#246=DIRECTION('',(-6.21764686730039E-16,1.,-1.07692802776857E-15));
#247=DIRECTION('',(1.,6.99485272571293E-16,0.));
#248=DIRECTION('',(0.,1.,0.));
#249=DIRECTION('',(1.,0.,0.));
#250=DIRECTION('',(0.,1.,0.));
#251=DIRECTION('',(1.,0.,0.));
#252=DIRECTION('',(0.,-1.,0.));
#253=DIRECTION('',(1.,1.30088689514755E-17,-8.71320511969302E-17));
#254=DIRECTION('',(0.,-1.,0.));
#255=DIRECTION('',(1.,0.,1.06813770395949E-15));
#256=DIRECTION('',(0.,-1.,-1.69802796810273E-16));
#257=DIRECTION('',(1.,-3.79059524855364E-17,-2.76423238051079E-32));
#258=DIRECTION('',(-6.25964416140483E-17,1.,1.0842021724855E-16));
#259=DIRECTION('',(1.,9.6373526443156E-17,0.));
#260=DIRECTION('',(1.25192883228097E-16,1.,2.16840434497101E-16));
#261=DIRECTION('',(1.,-9.6373526443156E-17,0.));
#262=DIRECTION('',(-4.81867632215779E-17,1.,8.34619221520643E-17));
#263=DIRECTION('',(1.,0.,-6.42490176287706E-17));
#264=DIRECTION('',(0.,-1.,0.));
#265=DIRECTION('',(0.,0.,1.));
#266=DIRECTION('',(-1.72679838935306E-16,1.,2.99090254478761E-16));
#267=DIRECTION('',(1.,0.,0.));
#268=DIRECTION('',(0.,-1.,0.));
#269=DIRECTION('',(0.,0.,1.));
#270=DIRECTION('',(0.,1.,0.));
#271=DIRECTION('',(0.,0.,1.));
#272=DIRECTION('',(-8.6339919467653E-17,1.,-1.4954512723938E-16));
#273=DIRECTION('',(1.,0.,0.));
#274=DIRECTION('',(0.,1.,0.));
#275=DIRECTION('',(0.,0.,1.));
#276=DIRECTION('',(-5.97251038425209E-17,1.,1.5611309969356E-16));
#277=DIRECTION('',(1.,0.,0.));
#278=DIRECTION('',(0.,-1.,0.));
#279=DIRECTION('',(0.,1.67540821614116E-17,-1.));
#280=CARTESIAN_POINT('',(0.,0.,0.));
#281=CARTESIAN_POINT('',(-1.56257522758097,19.1612788087981,0.));
#282=CARTESIAN_POINT('',(-0.322575293479496,17.9112788087977,0.654498385050523));
#283=CARTESIAN_POINT('',(-0.322575293479495,17.9112788087977,-0.654498385050522));
#284=CARTESIAN_POINT('',(-0.918076747146414,17.9112788087977,-1.24999983871744));
#285=CARTESIAN_POINT('',(-2.22707351724746,17.9112788087977,-1.24999983871744));
#286=CARTESIAN_POINT('',(-2.82257497091438,17.9112788087977,-0.65449838505052));
#287=CARTESIAN_POINT('',(-2.82257497091437,17.9112788087977,0.654498385050525));
#288=CARTESIAN_POINT('',(-2.22707351724745,17.9112788087977,1.24999983871744));
#289=CARTESIAN_POINT('',(-0.918076747146408,17.9112788087977,1.24999983871744));
#290=CARTESIAN_POINT('',(-0.322575293479496,17.9112788087977,0.654498385050523));
#291=CARTESIAN_POINT('',(-0.322575293479495,17.9112788087977,-0.654498385050522));
#292=CARTESIAN_POINT('',(-0.322575260530232,17.9112788087977,-1.99930734599024E-15));
#293=CARTESIAN_POINT('',(-1.57257513219694,17.911279035223,0.));
#294=CARTESIAN_POINT('',(-1.56257522758097,4.7700362215338,0.));
#295=CARTESIAN_POINT('',(-0.322575227580965,4.7700362215338,0.));
#296=CARTESIAN_POINT('',(-1.56257522758096,4.7700362215338,7.07608623096526E-15));
#297=CARTESIAN_POINT('',(-1.56257522758097,4.33702351964158,0.));
#298=CARTESIAN_POINT('',(-0.072575227580965,4.33702351964158,0.));
#299=CARTESIAN_POINT('',(-0.0725752275809661,4.33702351964158,0.));
#300=CARTESIAN_POINT('',(-0.322575227580966,4.48136108693898,0.));
#301=CARTESIAN_POINT('',(-0.322575227580966,4.7700362215338,0.));
#302=CARTESIAN_POINT('',(-0.0725752275809661,4.33702351964158,-2.58075570327762));
#303=CARTESIAN_POINT('',(-0.322575227580966,4.48136108693899,-2.14774300138541));
#304=CARTESIAN_POINT('',(-0.322575227580967,4.7700362215338,-2.1477430013854));
#305=CARTESIAN_POINT('',(-2.30757522758097,4.33702351964158,-1.29037785163881));
#306=CARTESIAN_POINT('',(-2.18257522758096,4.48136108693898,-1.0738715006927));
#307=CARTESIAN_POINT('',(-2.18257522758096,4.7700362215338,-1.0738715006927));
#308=CARTESIAN_POINT('',(-4.54257522758096,4.33702351964158,-1.30104260698261E-15));
#309=CARTESIAN_POINT('',(-4.04257522758096,4.48136108693899,-1.08274686755599E-15));
#310=CARTESIAN_POINT('',(-4.04257522758096,4.7700362215338,-1.08274686755599E-15));
#311=CARTESIAN_POINT('',(-2.30757522758097,4.33702351964158,1.29037785163881));
#312=CARTESIAN_POINT('',(-2.18257522758097,4.48136108693898,1.0738715006927));
#313=CARTESIAN_POINT('',(-2.18257522758096,4.7700362215338,1.0738715006927));
#314=CARTESIAN_POINT('',(-0.0725752275809683,4.33702351964158,2.58075570327762));
#315=CARTESIAN_POINT('',(-0.322575227580968,4.48136108693899,2.14774300138541));
#316=CARTESIAN_POINT('',(-0.322575227580968,4.7700362215338,2.1477430013854));
#317=CARTESIAN_POINT('',(-0.0725752275809661,4.33702351964158,0.));
#318=CARTESIAN_POINT('',(-0.322575227580966,4.48136108693898,0.));
#319=CARTESIAN_POINT('',(-0.322575227580966,4.7700362215338,0.));
#320=CARTESIAN_POINT('',(-1.56257522758097,3.96127880888054,0.));
#321=CARTESIAN_POINT('',(0.57823370213242,3.96127880888054,0.));
#322=CARTESIAN_POINT('',(-1.56257522758097,4.33702351964158,1.58179914775029E-16));
#323=CARTESIAN_POINT('',(-1.56257522758097,3.66127880886198,-2.40330983390886E-15));
#324=CARTESIAN_POINT('',(0.687424772419035,3.66127880886198,-2.69630192214213E-30));
#325=CARTESIAN_POINT('',(-1.56257522758097,3.96127880888054,2.5470419523117E-17));
#326=CARTESIAN_POINT('',(-1.56257522758097,1.66127880886198,0.));
#327=CARTESIAN_POINT('',(0.687424772419035,1.66127880886198,0.));
#328=CARTESIAN_POINT('',(-1.56257522758097,1.66127880886198,-2.16840434497101E-16));
#329=CARTESIAN_POINT('',(-1.56257522758097,1.66127880886199,1.28498035257541E-16));
#330=CARTESIAN_POINT('',(0.437424772419035,1.66127880886199,4.81482486096809E-32));
#331=CARTESIAN_POINT('',(0.912424772419036,1.66127880886198,-2.475));
#332=CARTESIAN_POINT('',(-1.56257522758097,-5.83872119113802,0.));
#333=CARTESIAN_POINT('',(0.687424772419035,-5.83872119113802,0.));
#334=CARTESIAN_POINT('',(0.912424772419034,-5.83872119113802,-2.475));
#335=CARTESIAN_POINT('',(-1.56257522758097,-3.08305875843543,-1.56635628961938E-15));
#336=CARTESIAN_POINT('',(-1.56257522758097,-3.08305875843543,2.25));
#337=CARTESIAN_POINT('',(-1.56257522758097,-5.83872119113802,2.16840434497101E-16));
#338=CARTESIAN_POINT('',(-1.56257522758097,-2.93872119113802,-1.56635628961938E-15));
#339=CARTESIAN_POINT('',(-1.56257522758097,-2.93872119113802,2.));
#340=CARTESIAN_POINT('',(-1.56257522758097,-2.50570848924581,-3.25260651745651E-16));
#341=CARTESIAN_POINT('',(-1.56257522758097,-3.08305875843543,-1.56635628961938E-15));
#342=MECHANICAL_DESIGN_GEOMETRIC_PRESENTATION_REPRESENTATION('',(#35,#23,
#24,#25,#26,#27,#28,#29,#30,#31,#32),#343);
#343=(
GEOMETRIC_REPRESENTATION_CONTEXT(3)
GLOBAL_UNCERTAINTY_ASSIGNED_CONTEXT((#344))
GLOBAL_UNIT_ASSIGNED_CONTEXT((#350,#346,#345))
REPRESENTATION_CONTEXT('n 01 025 0039 x','TOP_LEVEL_ASSEMBLY_PART')
);
#344=UNCERTAINTY_MEASURE_WITH_UNIT(LENGTH_MEASURE(0.0508),#350,
'DISTANCE_ACCURACY_VALUE','Maximum Tolerance applied to model');
#345=(
NAMED_UNIT(*)
SI_UNIT($,.STERADIAN.)
SOLID_ANGLE_UNIT()
);
#346=(
CONVERSION_BASED_UNIT('DEGREE',#348)
NAMED_UNIT(#347)
PLANE_ANGLE_UNIT()
);
#347=DIMENSIONAL_EXPONENTS(0.,0.,0.,0.,0.,0.,0.);
#348=PLANE_ANGLE_MEASURE_WITH_UNIT(PLANE_ANGLE_MEASURE(0.0174532925),#349);
#349=(
NAMED_UNIT(*)
PLANE_ANGLE_UNIT()
SI_UNIT($,.RADIAN.)
);
#350=(
LENGTH_UNIT()
NAMED_UNIT(*)
SI_UNIT(.MILLI.,.METRE.)
);
ENDSEC;
END-ISO-10303-21;
