ISO-10303-21;
HEADER;
/* Generated by software containing ST-Developer
 * from STEP Tools, Inc. (www.steptools.com) 
 */
/* OPTION: using custom schema-name function */

FILE_DESCRIPTION(
/* description */ (''),
/* implementation_level */ '2;1');

FILE_NAME(
/* name */ '',
/* time_stamp */ '2015-06-01T08:16:49+02:00',
/* author */ (''),
/* organization */ (''),
/* preprocessor_version */ 'ST-DEVELOPER v11',
/* originating_system */ 'SIEMENS PLM Software NX 7.5',
/* authorisation */ '');

FILE_SCHEMA (('CONFIG_CONTROL_DESIGN'));
ENDSEC;

DATA;
#10=SHAPE_REPRESENTATION_RELATIONSHIP('None',
'relationship between N 02 080 0003 (1)_02-None and N 02 080 0003 (1)_0
2-None',#94,#11);
#11=ADVANCED_BREP_SHAPE_REPRESENTATION('N 02 080 0003 (1)_02-None',(#95),
#567);
#12=CC_DESIGN_APPROVAL(#24,(#82));
#13=CC_DESIGN_APPROVAL(#25,(#84));
#14=CC_DESIGN_APPROVAL(#26,(#31));
#15=APPROVAL_PERSON_ORGANIZATION(#69,#24,#18);
#16=APPROVAL_PERSON_ORGANIZATION(#70,#25,#19);
#17=APPROVAL_PERSON_ORGANIZATION(#71,#26,#20);
#18=APPROVAL_ROLE('approver');
#19=APPROVAL_ROLE('approver');
#20=APPROVAL_ROLE('approver');
#21=APPROVAL_DATE_TIME(#39,#24);
#22=APPROVAL_DATE_TIME(#40,#25);
#23=APPROVAL_DATE_TIME(#41,#26);
#24=APPROVAL(#27,' ');
#25=APPROVAL(#28,' ');
#26=APPROVAL(#29,' ');
#27=APPROVAL_STATUS('not_yet_approved');
#28=APPROVAL_STATUS('not_yet_approved');
#29=APPROVAL_STATUS('not_yet_approved');
#30=CC_DESIGN_SECURITY_CLASSIFICATION(#31,(#84));
#31=SECURITY_CLASSIFICATION(' ',' ',#32);
#32=SECURITY_CLASSIFICATION_LEVEL('confidential');
#33=CC_DESIGN_DATE_AND_TIME_ASSIGNMENT(#37,#35,(#82));
#34=CC_DESIGN_DATE_AND_TIME_ASSIGNMENT(#38,#36,(#31));
#35=DATE_TIME_ROLE('creation_date');
#36=DATE_TIME_ROLE('classification_date');
#37=DATE_AND_TIME(#52,#42);
#38=DATE_AND_TIME(#53,#43);
#39=DATE_AND_TIME(#54,#44);
#40=DATE_AND_TIME(#55,#45);
#41=DATE_AND_TIME(#56,#46);
#42=LOCAL_TIME(0,0,0.,#47);
#43=LOCAL_TIME(0,0,0.,#48);
#44=LOCAL_TIME(0,0,0.,#49);
#45=LOCAL_TIME(0,0,0.,#50);
#46=LOCAL_TIME(0,0,0.,#51);
#47=COORDINATED_UNIVERSAL_TIME_OFFSET(0,0,.BEHIND.);
#48=COORDINATED_UNIVERSAL_TIME_OFFSET(0,0,.BEHIND.);
#49=COORDINATED_UNIVERSAL_TIME_OFFSET(0,0,.BEHIND.);
#50=COORDINATED_UNIVERSAL_TIME_OFFSET(0,0,.BEHIND.);
#51=COORDINATED_UNIVERSAL_TIME_OFFSET(0,0,.BEHIND.);
#52=CALENDAR_DATE(0,1,1);
#53=CALENDAR_DATE(0,1,1);
#54=CALENDAR_DATE(0,1,1);
#55=CALENDAR_DATE(0,1,1);
#56=CALENDAR_DATE(0,1,1);
#57=CC_DESIGN_PERSON_AND_ORGANIZATION_ASSIGNMENT(#65,#61,(#82,#84));
#58=CC_DESIGN_PERSON_AND_ORGANIZATION_ASSIGNMENT(#66,#62,(#86));
#59=CC_DESIGN_PERSON_AND_ORGANIZATION_ASSIGNMENT(#67,#63,(#84));
#60=CC_DESIGN_PERSON_AND_ORGANIZATION_ASSIGNMENT(#68,#64,(#31));
#61=PERSON_AND_ORGANIZATION_ROLE('creator');
#62=PERSON_AND_ORGANIZATION_ROLE('design_owner');
#63=PERSON_AND_ORGANIZATION_ROLE('design_supplier');
#64=PERSON_AND_ORGANIZATION_ROLE('classification_officer');
#65=PERSON_AND_ORGANIZATION(#79,#72);
#66=PERSON_AND_ORGANIZATION(#79,#73);
#67=PERSON_AND_ORGANIZATION(#79,#74);
#68=PERSON_AND_ORGANIZATION(#79,#75);
#69=PERSON_AND_ORGANIZATION(#79,#76);
#70=PERSON_AND_ORGANIZATION(#79,#77);
#71=PERSON_AND_ORGANIZATION(#79,#78);
#72=ORGANIZATION(' ',' ',' ');
#73=ORGANIZATION(' ',' ',' ');
#74=ORGANIZATION(' ',' ',' ');
#75=ORGANIZATION(' ',' ',' ');
#76=ORGANIZATION(' ',' ',' ');
#77=ORGANIZATION(' ',' ',' ');
#78=ORGANIZATION(' ',' ',' ');
#79=PERSON(' ',' ',' ',(' '),$,$);
#80=SHAPE_DEFINITION_REPRESENTATION(#81,#94);
#81=PRODUCT_DEFINITION_SHAPE('','',#82);
#82=PRODUCT_DEFINITION(' ','',#84,#83);
#83=DESIGN_CONTEXT('',#93,'design');
#84=PRODUCT_DEFINITION_FORMATION_WITH_SPECIFIED_SOURCE(' ',' ',#86,.NOT_KNOWN.);
#85=PRODUCT_RELATED_PRODUCT_CATEGORY('detail','',(#86));
#86=PRODUCT('N 02 080 0003 (1)_02','N 02 080 0003 (1)_02',' ',(#91));
#87=PRODUCT_CATEGORY_RELATIONSHIP(' ',' ',#89,#90);
#88=PRODUCT_CATEGORY_RELATIONSHIP('','',#90,#85);
#89=PRODUCT_CATEGORY('part',' ');
#90=PRODUCT_CATEGORY(' ','');
#91=MECHANICAL_CONTEXT(' ',#93,'mechanical');
#92=APPLICATION_PROTOCOL_DEFINITION('international standard',
'config_control_design',1994,#93);
#93=APPLICATION_CONTEXT(
'configuration controlled 3D designs of mechanical parts and assemblies');
#94=SHAPE_REPRESENTATION('N 02 080 0003 (1)_02-None',(#352),#567);
#95=MANIFOLD_SOLID_BREP('',#96);
#96=CLOSED_SHELL('',(#114,#115,#116,#117,#118,#119,#120,#121,#122,#123,#124,
#125,#126,#127,#128,#129,#130,#131,#132,#133,#134,#135,#136,#137));
#97=TOROIDAL_SURFACE('',#376,6.2,0.3);
#98=TOROIDAL_SURFACE('',#390,3.95,1.);
#99=TOROIDAL_SURFACE('',#394,3.45,0.500000000000001);
#100=CYLINDRICAL_SURFACE('',#361,4.25);
#101=CYLINDRICAL_SURFACE('',#368,5.5);
#102=CYLINDRICAL_SURFACE('',#372,5.7);
#103=CYLINDRICAL_SURFACE('',#378,6.5);
#104=CYLINDRICAL_SURFACE('',#382,5.7);
#105=CYLINDRICAL_SURFACE('',#386,6.5);
#106=CYLINDRICAL_SURFACE('',#392,2.95);
#107=CYLINDRICAL_SURFACE('',#398,3.45);
#108=PLANE('',#357);
#109=PLANE('',#374);
#110=PLANE('',#380);
#111=PLANE('',#399);
#112=FACE_OUTER_BOUND('',#193,.T.);
#113=FACE_OUTER_BOUND('',#236,.T.);
#114=ADVANCED_FACE('',(#147,#148),#138,.T.);
#115=ADVANCED_FACE('',(#112),#108,.T.);
#116=ADVANCED_FACE('',(#149,#150),#139,.F.);
#117=ADVANCED_FACE('',(#151,#152),#100,.F.);
#118=ADVANCED_FACE('',(#153,#154),#140,.F.);
#119=ADVANCED_FACE('',(#155,#156),#141,.F.);
#120=ADVANCED_FACE('',(#157,#158),#142,.F.);
#121=ADVANCED_FACE('',(#159,#160),#101,.T.);
#122=ADVANCED_FACE('',(#161,#162),#143,.T.);
#123=ADVANCED_FACE('',(#163,#164),#102,.T.);
#124=ADVANCED_FACE('',(#165,#166),#109,.T.);
#125=ADVANCED_FACE('',(#167,#168),#97,.T.);
#126=ADVANCED_FACE('',(#169,#170),#103,.T.);
#127=ADVANCED_FACE('',(#171,#172),#110,.T.);
#128=ADVANCED_FACE('',(#173,#174),#104,.T.);
#129=ADVANCED_FACE('',(#175,#176),#144,.T.);
#130=ADVANCED_FACE('',(#177,#178),#105,.T.);
#131=ADVANCED_FACE('',(#179,#180),#145,.T.);
#132=ADVANCED_FACE('',(#181,#182),#98,.F.);
#133=ADVANCED_FACE('',(#183,#184),#106,.T.);
#134=ADVANCED_FACE('',(#185,#186),#99,.F.);
#135=ADVANCED_FACE('',(#187,#188),#146,.T.);
#136=ADVANCED_FACE('',(#189,#190),#107,.T.);
#137=ADVANCED_FACE('',(#113),#111,.T.);
#138=CONICAL_SURFACE('',#355,4.60314763740251,10.2962177357011);
#139=CONICAL_SURFACE('',#359,0.517949192431114,75.);
#140=CONICAL_SURFACE('',#363,4.16948419527096,10.296217735701);
#141=CONICAL_SURFACE('',#365,3.81710341979368,19.703782264299);
#142=CONICAL_SURFACE('',#366,4.20958890178084,79.703782264299);
#143=CONICAL_SURFACE('',#370,5.5,14.9999999999999);
#144=CONICAL_SURFACE('',#384,5.7,45.);
#145=CONICAL_SURFACE('',#388,6.5,75.0685828218624);
#146=CONICAL_SURFACE('',#396,3.2,59.9999999999995);
#147=FACE_BOUND('',#191,.T.);
#148=FACE_BOUND('',#192,.T.);
#149=FACE_BOUND('',#194,.T.);
#150=FACE_BOUND('',#195,.T.);
#151=FACE_BOUND('',#196,.T.);
#152=FACE_BOUND('',#197,.T.);
#153=FACE_BOUND('',#198,.T.);
#154=FACE_BOUND('',#199,.T.);
#155=FACE_BOUND('',#200,.T.);
#156=FACE_BOUND('',#201,.T.);
#157=FACE_BOUND('',#202,.T.);
#158=FACE_BOUND('',#203,.T.);
#159=FACE_BOUND('',#204,.T.);
#160=FACE_BOUND('',#205,.T.);
#161=FACE_BOUND('',#206,.T.);
#162=FACE_BOUND('',#207,.T.);
#163=FACE_BOUND('',#208,.T.);
#164=FACE_BOUND('',#209,.T.);
#165=FACE_BOUND('',#210,.T.);
#166=FACE_BOUND('',#211,.T.);
#167=FACE_BOUND('',#212,.T.);
#168=FACE_BOUND('',#213,.T.);
#169=FACE_BOUND('',#214,.T.);
#170=FACE_BOUND('',#215,.T.);
#171=FACE_BOUND('',#216,.T.);
#172=FACE_BOUND('',#217,.T.);
#173=FACE_BOUND('',#218,.T.);
#174=FACE_BOUND('',#219,.T.);
#175=FACE_BOUND('',#220,.T.);
#176=FACE_BOUND('',#221,.T.);
#177=FACE_BOUND('',#222,.T.);
#178=FACE_BOUND('',#223,.T.);
#179=FACE_BOUND('',#224,.T.);
#180=FACE_BOUND('',#225,.T.);
#181=FACE_BOUND('',#226,.T.);
#182=FACE_BOUND('',#227,.T.);
#183=FACE_BOUND('',#228,.T.);
#184=FACE_BOUND('',#229,.T.);
#185=FACE_BOUND('',#230,.T.);
#186=FACE_BOUND('',#231,.T.);
#187=FACE_BOUND('',#232,.T.);
#188=FACE_BOUND('',#233,.T.);
#189=FACE_BOUND('',#234,.T.);
#190=FACE_BOUND('',#235,.T.);
#191=EDGE_LOOP('',(#237));
#192=EDGE_LOOP('',(#238));
#193=EDGE_LOOP('',(#239));
#194=EDGE_LOOP('',(#240));
#195=EDGE_LOOP('',(#241));
#196=EDGE_LOOP('',(#242));
#197=EDGE_LOOP('',(#243));
#198=EDGE_LOOP('',(#244));
#199=EDGE_LOOP('',(#245));
#200=EDGE_LOOP('',(#246));
#201=EDGE_LOOP('',(#247));
#202=EDGE_LOOP('',(#248));
#203=EDGE_LOOP('',(#249));
#204=EDGE_LOOP('',(#250));
#205=EDGE_LOOP('',(#251));
#206=EDGE_LOOP('',(#252));
#207=EDGE_LOOP('',(#253));
#208=EDGE_LOOP('',(#254));
#209=EDGE_LOOP('',(#255));
#210=EDGE_LOOP('',(#256));
#211=EDGE_LOOP('',(#257));
#212=EDGE_LOOP('',(#258));
#213=EDGE_LOOP('',(#259));
#214=EDGE_LOOP('',(#260));
#215=EDGE_LOOP('',(#261));
#216=EDGE_LOOP('',(#262));
#217=EDGE_LOOP('',(#263));
#218=EDGE_LOOP('',(#264));
#219=EDGE_LOOP('',(#265));
#220=EDGE_LOOP('',(#266));
#221=EDGE_LOOP('',(#267));
#222=EDGE_LOOP('',(#268));
#223=EDGE_LOOP('',(#269));
#224=EDGE_LOOP('',(#270));
#225=EDGE_LOOP('',(#271));
#226=EDGE_LOOP('',(#272));
#227=EDGE_LOOP('',(#273));
#228=EDGE_LOOP('',(#274));
#229=EDGE_LOOP('',(#275));
#230=EDGE_LOOP('',(#276));
#231=EDGE_LOOP('',(#277));
#232=EDGE_LOOP('',(#278));
#233=EDGE_LOOP('',(#279));
#234=EDGE_LOOP('',(#280));
#235=EDGE_LOOP('',(#281));
#236=EDGE_LOOP('',(#282));
#237=ORIENTED_EDGE('',*,*,#306,.F.);
#238=ORIENTED_EDGE('',*,*,#307,.T.);
#239=ORIENTED_EDGE('',*,*,#308,.T.);
#240=ORIENTED_EDGE('',*,*,#309,.T.);
#241=ORIENTED_EDGE('',*,*,#308,.F.);
#242=ORIENTED_EDGE('',*,*,#310,.F.);
#243=ORIENTED_EDGE('',*,*,#309,.F.);
#244=ORIENTED_EDGE('',*,*,#311,.T.);
#245=ORIENTED_EDGE('',*,*,#310,.T.);
#246=ORIENTED_EDGE('',*,*,#312,.T.);
#247=ORIENTED_EDGE('',*,*,#311,.F.);
#248=ORIENTED_EDGE('',*,*,#306,.T.);
#249=ORIENTED_EDGE('',*,*,#312,.F.);
#250=ORIENTED_EDGE('',*,*,#307,.F.);
#251=ORIENTED_EDGE('',*,*,#313,.T.);
#252=ORIENTED_EDGE('',*,*,#314,.T.);
#253=ORIENTED_EDGE('',*,*,#313,.F.);
#254=ORIENTED_EDGE('',*,*,#315,.T.);
#255=ORIENTED_EDGE('',*,*,#314,.F.);
#256=ORIENTED_EDGE('',*,*,#316,.T.);
#257=ORIENTED_EDGE('',*,*,#315,.F.);
#258=ORIENTED_EDGE('',*,*,#317,.T.);
#259=ORIENTED_EDGE('',*,*,#316,.F.);
#260=ORIENTED_EDGE('',*,*,#318,.T.);
#261=ORIENTED_EDGE('',*,*,#317,.F.);
#262=ORIENTED_EDGE('',*,*,#319,.T.);
#263=ORIENTED_EDGE('',*,*,#318,.F.);
#264=ORIENTED_EDGE('',*,*,#320,.T.);
#265=ORIENTED_EDGE('',*,*,#319,.F.);
#266=ORIENTED_EDGE('',*,*,#321,.T.);
#267=ORIENTED_EDGE('',*,*,#320,.F.);
#268=ORIENTED_EDGE('',*,*,#322,.T.);
#269=ORIENTED_EDGE('',*,*,#321,.F.);
#270=ORIENTED_EDGE('',*,*,#323,.T.);
#271=ORIENTED_EDGE('',*,*,#322,.F.);
#272=ORIENTED_EDGE('',*,*,#324,.T.);
#273=ORIENTED_EDGE('',*,*,#323,.F.);
#274=ORIENTED_EDGE('',*,*,#325,.T.);
#275=ORIENTED_EDGE('',*,*,#324,.F.);
#276=ORIENTED_EDGE('',*,*,#326,.T.);
#277=ORIENTED_EDGE('',*,*,#325,.F.);
#278=ORIENTED_EDGE('',*,*,#327,.T.);
#279=ORIENTED_EDGE('',*,*,#326,.F.);
#280=ORIENTED_EDGE('',*,*,#328,.T.);
#281=ORIENTED_EDGE('',*,*,#327,.F.);
#282=ORIENTED_EDGE('',*,*,#328,.F.);
#283=VERTEX_POINT('',#498);
#284=VERTEX_POINT('',#500);
#285=VERTEX_POINT('',#503);
#286=VERTEX_POINT('',#506);
#287=VERTEX_POINT('',#509);
#288=VERTEX_POINT('',#512);
#289=VERTEX_POINT('',#515);
#290=VERTEX_POINT('',#519);
#291=VERTEX_POINT('',#522);
#292=VERTEX_POINT('',#525);
#293=VERTEX_POINT('',#528);
#294=VERTEX_POINT('',#531);
#295=VERTEX_POINT('',#534);
#296=VERTEX_POINT('',#537);
#297=VERTEX_POINT('',#540);
#298=VERTEX_POINT('',#543);
#299=VERTEX_POINT('',#546);
#300=VERTEX_POINT('',#549);
#301=VERTEX_POINT('',#552);
#302=VERTEX_POINT('',#555);
#303=VERTEX_POINT('',#558);
#304=VERTEX_POINT('',#561);
#305=VERTEX_POINT('',#564);
#306=EDGE_CURVE('',#283,#283,#329,.T.);
#307=EDGE_CURVE('',#284,#284,#330,.T.);
#308=EDGE_CURVE('',#285,#285,#331,.T.);
#309=EDGE_CURVE('',#286,#286,#332,.T.);
#310=EDGE_CURVE('',#287,#287,#333,.T.);
#311=EDGE_CURVE('',#288,#288,#334,.T.);
#312=EDGE_CURVE('',#289,#289,#335,.T.);
#313=EDGE_CURVE('',#290,#290,#336,.T.);
#314=EDGE_CURVE('',#291,#291,#337,.T.);
#315=EDGE_CURVE('',#292,#292,#338,.T.);
#316=EDGE_CURVE('',#293,#293,#339,.T.);
#317=EDGE_CURVE('',#294,#294,#340,.T.);
#318=EDGE_CURVE('',#295,#295,#341,.T.);
#319=EDGE_CURVE('',#296,#296,#342,.T.);
#320=EDGE_CURVE('',#297,#297,#343,.T.);
#321=EDGE_CURVE('',#298,#298,#344,.T.);
#322=EDGE_CURVE('',#299,#299,#345,.T.);
#323=EDGE_CURVE('',#300,#300,#346,.T.);
#324=EDGE_CURVE('',#301,#301,#347,.T.);
#325=EDGE_CURVE('',#302,#302,#348,.T.);
#326=EDGE_CURVE('',#303,#303,#349,.T.);
#327=EDGE_CURVE('',#304,#304,#350,.T.);
#328=EDGE_CURVE('',#305,#305,#351,.T.);
#329=CIRCLE('',#353,4.60314763740251);
#330=CIRCLE('',#354,5.5);
#331=CIRCLE('',#356,0.517949192431114);
#332=CIRCLE('',#358,4.25);
#333=CIRCLE('',#360,4.25);
#334=CIRCLE('',#362,3.63642130996436);
#335=CIRCLE('',#364,4.20958890178084);
#336=CIRCLE('',#367,5.5);
#337=CIRCLE('',#369,5.7);
#338=CIRCLE('',#371,5.7);
#339=CIRCLE('',#373,6.2);
#340=CIRCLE('',#375,6.5);
#341=CIRCLE('',#377,6.5);
#342=CIRCLE('',#379,5.7);
#343=CIRCLE('',#381,5.7);
#344=CIRCLE('',#383,6.5);
#345=CIRCLE('',#385,6.5);
#346=CIRCLE('',#387,3.69233734943967);
#347=CIRCLE('',#389,2.95);
#348=CIRCLE('',#391,2.95);
#349=CIRCLE('',#393,3.2);
#350=CIRCLE('',#395,3.45);
#351=CIRCLE('',#397,3.45);
#352=AXIS2_PLACEMENT_3D('',#496,#400,#401);
#353=AXIS2_PLACEMENT_3D('',#497,#402,#403);
#354=AXIS2_PLACEMENT_3D('',#499,#404,#405);
#355=AXIS2_PLACEMENT_3D('',#501,#406,#407);
#356=AXIS2_PLACEMENT_3D('',#502,#408,#409);
#357=AXIS2_PLACEMENT_3D('',#504,#410,#411);
#358=AXIS2_PLACEMENT_3D('',#505,#412,#413);
#359=AXIS2_PLACEMENT_3D('',#507,#414,#415);
#360=AXIS2_PLACEMENT_3D('',#508,#416,#417);
#361=AXIS2_PLACEMENT_3D('',#510,#418,#419);
#362=AXIS2_PLACEMENT_3D('',#511,#420,#421);
#363=AXIS2_PLACEMENT_3D('',#513,#422,#423);
#364=AXIS2_PLACEMENT_3D('',#514,#424,#425);
#365=AXIS2_PLACEMENT_3D('',#516,#426,#427);
#366=AXIS2_PLACEMENT_3D('',#517,#428,#429);
#367=AXIS2_PLACEMENT_3D('',#518,#430,#431);
#368=AXIS2_PLACEMENT_3D('',#520,#432,#433);
#369=AXIS2_PLACEMENT_3D('',#521,#434,#435);
#370=AXIS2_PLACEMENT_3D('',#523,#436,#437);
#371=AXIS2_PLACEMENT_3D('',#524,#438,#439);
#372=AXIS2_PLACEMENT_3D('',#526,#440,#441);
#373=AXIS2_PLACEMENT_3D('',#527,#442,#443);
#374=AXIS2_PLACEMENT_3D('',#529,#444,#445);
#375=AXIS2_PLACEMENT_3D('',#530,#446,#447);
#376=AXIS2_PLACEMENT_3D('',#532,#448,#449);
#377=AXIS2_PLACEMENT_3D('',#533,#450,#451);
#378=AXIS2_PLACEMENT_3D('',#535,#452,#453);
#379=AXIS2_PLACEMENT_3D('',#536,#454,#455);
#380=AXIS2_PLACEMENT_3D('',#538,#456,#457);
#381=AXIS2_PLACEMENT_3D('',#539,#458,#459);
#382=AXIS2_PLACEMENT_3D('',#541,#460,#461);
#383=AXIS2_PLACEMENT_3D('',#542,#462,#463);
#384=AXIS2_PLACEMENT_3D('',#544,#464,#465);
#385=AXIS2_PLACEMENT_3D('',#545,#466,#467);
#386=AXIS2_PLACEMENT_3D('',#547,#468,#469);
#387=AXIS2_PLACEMENT_3D('',#548,#470,#471);
#388=AXIS2_PLACEMENT_3D('',#550,#472,#473);
#389=AXIS2_PLACEMENT_3D('',#551,#474,#475);
#390=AXIS2_PLACEMENT_3D('',#553,#476,#477);
#391=AXIS2_PLACEMENT_3D('',#554,#478,#479);
#392=AXIS2_PLACEMENT_3D('',#556,#480,#481);
#393=AXIS2_PLACEMENT_3D('',#557,#482,#483);
#394=AXIS2_PLACEMENT_3D('',#559,#484,#485);
#395=AXIS2_PLACEMENT_3D('',#560,#486,#487);
#396=AXIS2_PLACEMENT_3D('',#562,#488,#489);
#397=AXIS2_PLACEMENT_3D('',#563,#490,#491);
#398=AXIS2_PLACEMENT_3D('',#565,#492,#493);
#399=AXIS2_PLACEMENT_3D('',#566,#494,#495);
#400=DIRECTION('',(0.,0.,1.));
#401=DIRECTION('',(1.,0.,0.));
#402=DIRECTION('',(0.,0.,-1.));
#403=DIRECTION('',(-1.,0.,0.));
#404=DIRECTION('',(0.,0.,-1.));
#405=DIRECTION('',(1.,0.,0.));
#406=DIRECTION('',(0.,0.,1.));
#407=DIRECTION('',(1.,0.,-7.45053097793077E-017));
#408=DIRECTION('',(0.,0.,-1.));
#409=DIRECTION('',(-1.,0.,0.));
#410=DIRECTION('',(0.,0.,-1.));
#411=DIRECTION('',(-1.,0.,0.));
#412=DIRECTION('',(0.,0.,-1.));
#413=DIRECTION('',(-1.,0.,0.));
#414=DIRECTION('',(0.,0.,-1.));
#415=DIRECTION('',(-1.,0.,0.));
#416=DIRECTION('',(0.,0.,1.));
#417=DIRECTION('',(1.,0.,0.));
#418=DIRECTION('',(0.,0.,-1.));
#419=DIRECTION('',(-1.,0.,0.));
#420=DIRECTION('',(0.,0.,-1.));
#421=DIRECTION('',(-1.,0.,0.));
#422=DIRECTION('',(0.,0.,1.));
#423=DIRECTION('',(1.,0.,-1.49358355288806E-016));
#424=DIRECTION('',(0.,0.,-1.));
#425=DIRECTION('',(-1.,0.,0.));
#426=DIRECTION('',(0.,0.,-1.));
#427=DIRECTION('',(-1.,0.,-2.97153781558854E-016));
#428=DIRECTION('',(0.,0.,-1.));
#429=DIRECTION('',(-1.,0.,-1.35404240879347E-017));
#430=DIRECTION('',(0.,0.,-1.));
#431=DIRECTION('',(-1.,0.,0.));
#432=DIRECTION('',(0.,0.,-1.));
#433=DIRECTION('',(-1.,0.,0.));
#434=DIRECTION('',(0.,0.,-1.));
#435=DIRECTION('',(-1.,0.,0.));
#436=DIRECTION('',(0.,0.,1.));
#437=DIRECTION('',(1.,0.,0.));
#438=DIRECTION('',(0.,0.,-1.));
#439=DIRECTION('',(-1.,0.,0.));
#440=DIRECTION('',(0.,0.,-1.));
#441=DIRECTION('',(-1.,0.,0.));
#442=DIRECTION('',(0.,0.,-1.));
#443=DIRECTION('',(-1.,0.,0.));
#444=DIRECTION('',(0.,0.,-1.));
#445=DIRECTION('',(-1.,0.,0.));
#446=DIRECTION('',(0.,0.,-1.));
#447=DIRECTION('',(-1.,0.,0.));
#448=DIRECTION('',(0.,0.,-1.));
#449=DIRECTION('',(-1.,0.,0.));
#450=DIRECTION('',(0.,0.,-1.));
#451=DIRECTION('',(-1.,0.,0.));
#452=DIRECTION('',(0.,0.,-1.));
#453=DIRECTION('',(-1.,0.,0.));
#454=DIRECTION('',(0.,0.,-1.));
#455=DIRECTION('',(-1.,0.,0.));
#456=DIRECTION('',(0.,0.,1.));
#457=DIRECTION('',(1.,0.,0.));
#458=DIRECTION('',(0.,0.,-1.));
#459=DIRECTION('',(-1.,0.,0.));
#460=DIRECTION('',(0.,0.,-1.));
#461=DIRECTION('',(-1.,0.,0.));
#462=DIRECTION('',(0.,0.,-1.));
#463=DIRECTION('',(-1.,0.,0.));
#464=DIRECTION('',(0.,0.,1.));
#465=DIRECTION('',(1.,0.,6.89956637556651E-018));
#466=DIRECTION('',(0.,0.,-1.));
#467=DIRECTION('',(-1.,0.,0.));
#468=DIRECTION('',(0.,0.,-1.));
#469=DIRECTION('',(-1.,0.,0.));
#470=DIRECTION('',(0.,0.,-1.));
#471=DIRECTION('',(-1.,0.,0.));
#472=DIRECTION('',(0.,0.,-1.));
#473=DIRECTION('',(-1.,0.,-9.69764221895727E-018));
#474=DIRECTION('',(0.,0.,-1.));
#475=DIRECTION('',(-1.,0.,0.));
#476=DIRECTION('',(0.,0.,-1.));
#477=DIRECTION('',(-1.,0.,0.));
#478=DIRECTION('',(0.,0.,-1.));
#479=DIRECTION('',(-1.,0.,0.));
#480=DIRECTION('',(0.,0.,-1.));
#481=DIRECTION('',(-1.,0.,0.));
#482=DIRECTION('',(0.,0.,-1.));
#483=DIRECTION('',(-1.,0.,0.));
#484=DIRECTION('',(0.,0.,-1.));
#485=DIRECTION('',(-1.,0.,0.));
#486=DIRECTION('',(0.,0.,-1.));
#487=DIRECTION('',(-1.,0.,0.));
#488=DIRECTION('',(0.,0.,1.));
#489=DIRECTION('',(1.,0.,-2.79914909795675E-017));
#490=DIRECTION('',(0.,0.,-1.));
#491=DIRECTION('',(-1.,0.,0.));
#492=DIRECTION('',(0.,0.,-1.));
#493=DIRECTION('',(-1.,0.,0.));
#494=DIRECTION('',(0.,0.,1.));
#495=DIRECTION('',(1.,0.,0.));
#496=CARTESIAN_POINT('',(0.,0.,0.));
#497=CARTESIAN_POINT('',(0.,0.,-15.));
#498=CARTESIAN_POINT('',(-4.60314763740251,0.,-15.));
#499=CARTESIAN_POINT('',(0.,0.,-10.0630877008052));
#500=CARTESIAN_POINT('',(5.5,0.,-10.0630877008052));
#501=CARTESIAN_POINT('',(0.,0.,-15.));
#502=CARTESIAN_POINT('',(0.,0.,0.));
#503=CARTESIAN_POINT('',(-0.517949192431114,0.,0.));
#504=CARTESIAN_POINT('',(0.,0.,0.));
#505=CARTESIAN_POINT('',(0.,0.,-1.));
#506=CARTESIAN_POINT('',(-4.25,0.,-1.));
#507=CARTESIAN_POINT('',(0.,0.,0.));
#508=CARTESIAN_POINT('',(0.,0.,-9.95047016064417));
#509=CARTESIAN_POINT('',(4.25,0.,-9.95047016064417));
#510=CARTESIAN_POINT('',(0.,0.,0.));
#511=CARTESIAN_POINT('',(0.,0.,-13.3280430006014));
#512=CARTESIAN_POINT('',(-3.63642130996436,0.,-13.3280430006014));
#513=CARTESIAN_POINT('',(0.,0.,-10.3936863277902));
#514=CARTESIAN_POINT('',(0.,0.,-14.9285050937768));
#515=CARTESIAN_POINT('',(-4.20958890178084,0.,-14.9285050937768));
#516=CARTESIAN_POINT('',(0.,0.,-13.832563618699));
#517=CARTESIAN_POINT('',(0.,0.,-14.9285050937768));
#518=CARTESIAN_POINT('',(0.,0.,0.));
#519=CARTESIAN_POINT('',(-5.5,0.,0.));
#520=CARTESIAN_POINT('',(0.,0.,0.));
#521=CARTESIAN_POINT('',(0.,0.,0.746410161513774));
#522=CARTESIAN_POINT('',(-5.7,0.,0.746410161513774));
#523=CARTESIAN_POINT('',(0.,0.,0.));
#524=CARTESIAN_POINT('',(0.,0.,5.));
#525=CARTESIAN_POINT('',(-5.7,0.,5.));
#526=CARTESIAN_POINT('',(0.,0.,0.));
#527=CARTESIAN_POINT('',(0.,0.,5.));
#528=CARTESIAN_POINT('',(-6.2,0.,5.));
#529=CARTESIAN_POINT('',(5.7,0.,5.));
#530=CARTESIAN_POINT('',(0.,0.,5.3));
#531=CARTESIAN_POINT('',(-6.5,0.,5.3));
#532=CARTESIAN_POINT('',(0.,0.,5.3));
#533=CARTESIAN_POINT('',(0.,0.,5.8));
#534=CARTESIAN_POINT('',(-6.5,0.,5.8));
#535=CARTESIAN_POINT('',(0.,0.,0.));
#536=CARTESIAN_POINT('',(0.,0.,5.8));
#537=CARTESIAN_POINT('',(-5.7,0.,5.8));
#538=CARTESIAN_POINT('',(6.5,0.,5.8));
#539=CARTESIAN_POINT('',(0.,0.,8.));
#540=CARTESIAN_POINT('',(-5.7,0.,8.));
#541=CARTESIAN_POINT('',(0.,0.,0.));
#542=CARTESIAN_POINT('',(0.,0.,8.8));
#543=CARTESIAN_POINT('',(-6.5,0.,8.8));
#544=CARTESIAN_POINT('',(0.,0.,8.));
#545=CARTESIAN_POINT('',(0.,0.,9.4));
#546=CARTESIAN_POINT('',(-6.5,0.,9.4));
#547=CARTESIAN_POINT('',(0.,0.,0.));
#548=CARTESIAN_POINT('',(0.,0.,10.1487100401494));
#549=CARTESIAN_POINT('',(-3.69233734943967,0.,10.1487100401494));
#550=CARTESIAN_POINT('',(0.,0.,9.4));
#551=CARTESIAN_POINT('',(0.,0.,11.1149449797507));
#552=CARTESIAN_POINT('',(-2.95,0.,11.1149449797507));
#553=CARTESIAN_POINT('',(0.,0.,11.1149449797507));
#554=CARTESIAN_POINT('',(0.,0.,26.4226497308104));
#555=CARTESIAN_POINT('',(-2.95,0.,26.4226497308104));
#556=CARTESIAN_POINT('',(0.,0.,0.));
#557=CARTESIAN_POINT('',(0.,0.,26.8556624327026));
#558=CARTESIAN_POINT('',(-3.2,0.,26.8556624327026));
#559=CARTESIAN_POINT('',(0.,0.,26.4226497308104));
#560=CARTESIAN_POINT('',(0.,0.,27.));
#561=CARTESIAN_POINT('',(-3.45,0.,27.));
#562=CARTESIAN_POINT('',(0.,0.,26.8556624327026));
#563=CARTESIAN_POINT('',(0.,0.,28.));
#564=CARTESIAN_POINT('',(-3.45,0.,28.));
#565=CARTESIAN_POINT('',(0.,0.,0.));
#566=CARTESIAN_POINT('',(3.45,0.,28.));
#567=(
GEOMETRIC_REPRESENTATION_CONTEXT(3)
GLOBAL_UNCERTAINTY_ASSIGNED_CONTEXT((#568))
GLOBAL_UNIT_ASSIGNED_CONTEXT((#574,#570,#569))
REPRESENTATION_CONTEXT('N_02_080_0003_X__3D_Modell',
'TOP_LEVEL_ASSEMBLY_PART')
);
#568=UNCERTAINTY_MEASURE_WITH_UNIT(LENGTH_MEASURE(2.E-005),#574,
'DISTANCE_ACCURACY_VALUE','Maximum Tolerance applied to model');
#569=(
NAMED_UNIT(*)
SI_UNIT($,.STERADIAN.)
SOLID_ANGLE_UNIT()
);
#570=(
CONVERSION_BASED_UNIT('DEGREE',#572)
NAMED_UNIT(#571)
PLANE_ANGLE_UNIT()
);
#571=DIMENSIONAL_EXPONENTS(0.,0.,0.,0.,0.,0.,0.);
#572=PLANE_ANGLE_MEASURE_WITH_UNIT(PLANE_ANGLE_MEASURE(0.0174532925),#573);
#573=(
NAMED_UNIT(*)
PLANE_ANGLE_UNIT()
SI_UNIT($,.RADIAN.)
);
#574=(
LENGTH_UNIT()
NAMED_UNIT(*)
SI_UNIT(.MILLI.,.METRE.)
);
ENDSEC;
END-ISO-10303-21;
