ISO-10303-21;
HEADER;
/* Generated by software containing ST-Developer
 * from STEP Tools, Inc. (www.steptools.com) 
 */
/* OPTION: using custom schema-name function */

FILE_DESCRIPTION(
/* description */ (''),
/* implementation_level */ '2;1');

FILE_NAME(
/* name */ '',
/* time_stamp */ '2015-06-01T08:22:05+02:00',
/* author */ (''),
/* organization */ (''),
/* preprocessor_version */ 'ST-DEVELOPER v11',
/* originating_system */ 'SIEMENS PLM Software NX 7.5',
/* authorisation */ '');

FILE_SCHEMA (('CONFIG_CONTROL_DESIGN'));
ENDSEC;

DATA;
#10=SHAPE_REPRESENTATION_RELATIONSHIP('None',
'relationship between N 02 080 0004 (1)_02-None and N 02 080 0004 (1)_0
2-None',#94,#11);
#11=ADVANCED_BREP_SHAPE_REPRESENTATION('N 02 080 0004 (1)_02-None',(#95),
#647);
#12=CC_DESIGN_APPROVAL(#24,(#82));
#13=CC_DESIGN_APPROVAL(#25,(#84));
#14=CC_DESIGN_APPROVAL(#26,(#31));
#15=APPROVAL_PERSON_ORGANIZATION(#69,#24,#18);
#16=APPROVAL_PERSON_ORGANIZATION(#70,#25,#19);
#17=APPROVAL_PERSON_ORGANIZATION(#71,#26,#20);
#18=APPROVAL_ROLE('approver');
#19=APPROVAL_ROLE('approver');
#20=APPROVAL_ROLE('approver');
#21=APPROVAL_DATE_TIME(#39,#24);
#22=APPROVAL_DATE_TIME(#40,#25);
#23=APPROVAL_DATE_TIME(#41,#26);
#24=APPROVAL(#27,' ');
#25=APPROVAL(#28,' ');
#26=APPROVAL(#29,' ');
#27=APPROVAL_STATUS('not_yet_approved');
#28=APPROVAL_STATUS('not_yet_approved');
#29=APPROVAL_STATUS('not_yet_approved');
#30=CC_DESIGN_SECURITY_CLASSIFICATION(#31,(#84));
#31=SECURITY_CLASSIFICATION(' ',' ',#32);
#32=SECURITY_CLASSIFICATION_LEVEL('confidential');
#33=CC_DESIGN_DATE_AND_TIME_ASSIGNMENT(#37,#35,(#82));
#34=CC_DESIGN_DATE_AND_TIME_ASSIGNMENT(#38,#36,(#31));
#35=DATE_TIME_ROLE('creation_date');
#36=DATE_TIME_ROLE('classification_date');
#37=DATE_AND_TIME(#52,#42);
#38=DATE_AND_TIME(#53,#43);
#39=DATE_AND_TIME(#54,#44);
#40=DATE_AND_TIME(#55,#45);
#41=DATE_AND_TIME(#56,#46);
#42=LOCAL_TIME(0,0,0.,#47);
#43=LOCAL_TIME(0,0,0.,#48);
#44=LOCAL_TIME(0,0,0.,#49);
#45=LOCAL_TIME(0,0,0.,#50);
#46=LOCAL_TIME(0,0,0.,#51);
#47=COORDINATED_UNIVERSAL_TIME_OFFSET(0,0,.BEHIND.);
#48=COORDINATED_UNIVERSAL_TIME_OFFSET(0,0,.BEHIND.);
#49=COORDINATED_UNIVERSAL_TIME_OFFSET(0,0,.BEHIND.);
#50=COORDINATED_UNIVERSAL_TIME_OFFSET(0,0,.BEHIND.);
#51=COORDINATED_UNIVERSAL_TIME_OFFSET(0,0,.BEHIND.);
#52=CALENDAR_DATE(0,1,1);
#53=CALENDAR_DATE(0,1,1);
#54=CALENDAR_DATE(0,1,1);
#55=CALENDAR_DATE(0,1,1);
#56=CALENDAR_DATE(0,1,1);
#57=CC_DESIGN_PERSON_AND_ORGANIZATION_ASSIGNMENT(#65,#61,(#82,#84));
#58=CC_DESIGN_PERSON_AND_ORGANIZATION_ASSIGNMENT(#66,#62,(#86));
#59=CC_DESIGN_PERSON_AND_ORGANIZATION_ASSIGNMENT(#67,#63,(#84));
#60=CC_DESIGN_PERSON_AND_ORGANIZATION_ASSIGNMENT(#68,#64,(#31));
#61=PERSON_AND_ORGANIZATION_ROLE('creator');
#62=PERSON_AND_ORGANIZATION_ROLE('design_owner');
#63=PERSON_AND_ORGANIZATION_ROLE('design_supplier');
#64=PERSON_AND_ORGANIZATION_ROLE('classification_officer');
#65=PERSON_AND_ORGANIZATION(#79,#72);
#66=PERSON_AND_ORGANIZATION(#79,#73);
#67=PERSON_AND_ORGANIZATION(#79,#74);
#68=PERSON_AND_ORGANIZATION(#79,#75);
#69=PERSON_AND_ORGANIZATION(#79,#76);
#70=PERSON_AND_ORGANIZATION(#79,#77);
#71=PERSON_AND_ORGANIZATION(#79,#78);
#72=ORGANIZATION(' ',' ',' ');
#73=ORGANIZATION(' ',' ',' ');
#74=ORGANIZATION(' ',' ',' ');
#75=ORGANIZATION(' ',' ',' ');
#76=ORGANIZATION(' ',' ',' ');
#77=ORGANIZATION(' ',' ',' ');
#78=ORGANIZATION(' ',' ',' ');
#79=PERSON(' ',' ',' ',(' '),$,$);
#80=SHAPE_DEFINITION_REPRESENTATION(#81,#94);
#81=PRODUCT_DEFINITION_SHAPE('','',#82);
#82=PRODUCT_DEFINITION(' ','',#84,#83);
#83=DESIGN_CONTEXT('',#93,'design');
#84=PRODUCT_DEFINITION_FORMATION_WITH_SPECIFIED_SOURCE(' ',' ',#86,.NOT_KNOWN.);
#85=PRODUCT_RELATED_PRODUCT_CATEGORY('detail','',(#86));
#86=PRODUCT('N 02 080 0004 (1)_02','N 02 080 0004 (1)_02',' ',(#91));
#87=PRODUCT_CATEGORY_RELATIONSHIP(' ',' ',#89,#90);
#88=PRODUCT_CATEGORY_RELATIONSHIP('','',#90,#85);
#89=PRODUCT_CATEGORY('part',' ');
#90=PRODUCT_CATEGORY(' ','');
#91=MECHANICAL_CONTEXT(' ',#93,'mechanical');
#92=APPLICATION_PROTOCOL_DEFINITION('international standard',
'config_control_design',1994,#93);
#93=APPLICATION_CONTEXT(
'configuration controlled 3D designs of mechanical parts and assemblies');
#94=SHAPE_REPRESENTATION('N 02 080 0004 (1)_02-None',(#396),#647);
#95=MANIFOLD_SOLID_BREP('',#96);
#96=CLOSED_SHELL('',(#173,#174,#175,#176,#177,#178,#179,#180,#181,#182,#183,
#184,#185,#186,#187,#188,#189,#190,#191,#192,#193,#194,#195,#196,#197,#198,
#199,#200));
#97=TOROIDAL_SURFACE('',#420,6.2,0.3);
#98=TOROIDAL_SURFACE('',#434,5.25,1.);
#99=TOROIDAL_SURFACE('',#446,4.75,0.500000000000001);
#100=CYLINDRICAL_SURFACE('',#402,4.25);
#101=CYLINDRICAL_SURFACE('',#412,5.5);
#102=CYLINDRICAL_SURFACE('',#416,5.7);
#103=CYLINDRICAL_SURFACE('',#422,6.5);
#104=CYLINDRICAL_SURFACE('',#426,5.7);
#105=CYLINDRICAL_SURFACE('',#430,6.5);
#106=CYLINDRICAL_SURFACE('',#436,4.25);
#107=CYLINDRICAL_SURFACE('',#440,4.15000000000001);
#108=CYLINDRICAL_SURFACE('',#444,4.25);
#109=CYLINDRICAL_SURFACE('',#450,4.75);
#110=CONICAL_SURFACE('',#400,0.517949192431114,75.);
#111=CONICAL_SURFACE('',#404,4.16948419527096,10.296217735701);
#112=CONICAL_SURFACE('',#407,4.60314763740251,10.2962177357011);
#113=CONICAL_SURFACE('',#409,3.81710341979368,19.703782264299);
#114=CONICAL_SURFACE('',#410,4.20958890178084,79.703782264299);
#115=CONICAL_SURFACE('',#414,5.5,14.9999999999999);
#116=CONICAL_SURFACE('',#428,5.7,45.);
#117=CONICAL_SURFACE('',#432,6.5,75.0685828218625);
#118=CONICAL_SURFACE('',#438,4.25,45.000000000001);
#119=CONICAL_SURFACE('',#442,4.15000000000001,45.0000000000013);
#120=CONICAL_SURFACE('',#448,4.5,60.);
#121=FACE_BOUND('',#208,.T.);
#122=FACE_BOUND('',#209,.T.);
#123=FACE_BOUND('',#210,.T.);
#124=FACE_BOUND('',#211,.T.);
#125=FACE_BOUND('',#212,.T.);
#126=FACE_BOUND('',#213,.T.);
#127=FACE_BOUND('',#214,.T.);
#128=FACE_BOUND('',#215,.T.);
#129=FACE_BOUND('',#216,.T.);
#130=FACE_BOUND('',#217,.T.);
#131=FACE_BOUND('',#218,.T.);
#132=FACE_BOUND('',#219,.T.);
#133=FACE_BOUND('',#220,.T.);
#134=FACE_BOUND('',#221,.T.);
#135=FACE_BOUND('',#222,.T.);
#136=FACE_BOUND('',#223,.T.);
#137=FACE_BOUND('',#224,.T.);
#138=FACE_BOUND('',#225,.T.);
#139=FACE_BOUND('',#226,.T.);
#140=FACE_BOUND('',#227,.T.);
#141=FACE_BOUND('',#228,.T.);
#142=FACE_BOUND('',#229,.T.);
#143=FACE_BOUND('',#230,.T.);
#144=FACE_BOUND('',#231,.T.);
#145=FACE_BOUND('',#232,.T.);
#146=FACE_BOUND('',#233,.T.);
#147=FACE_BOUND('',#234,.T.);
#148=FACE_BOUND('',#235,.T.);
#149=FACE_BOUND('',#236,.T.);
#150=FACE_BOUND('',#237,.T.);
#151=FACE_BOUND('',#238,.T.);
#152=FACE_BOUND('',#239,.T.);
#153=FACE_BOUND('',#240,.T.);
#154=FACE_BOUND('',#241,.T.);
#155=FACE_BOUND('',#242,.T.);
#156=FACE_BOUND('',#243,.T.);
#157=FACE_BOUND('',#244,.T.);
#158=FACE_BOUND('',#245,.T.);
#159=FACE_BOUND('',#246,.T.);
#160=FACE_BOUND('',#247,.T.);
#161=FACE_BOUND('',#248,.T.);
#162=FACE_BOUND('',#249,.T.);
#163=FACE_BOUND('',#250,.T.);
#164=FACE_BOUND('',#251,.T.);
#165=FACE_BOUND('',#252,.T.);
#166=FACE_BOUND('',#253,.T.);
#167=FACE_BOUND('',#254,.T.);
#168=FACE_BOUND('',#255,.T.);
#169=FACE_BOUND('',#256,.T.);
#170=FACE_BOUND('',#257,.T.);
#171=FACE_BOUND('',#258,.T.);
#172=FACE_BOUND('',#259,.T.);
#173=ADVANCED_FACE('',(#205),#201,.T.);
#174=ADVANCED_FACE('',(#121,#122),#110,.F.);
#175=ADVANCED_FACE('',(#123,#124),#100,.F.);
#176=ADVANCED_FACE('',(#125,#126),#111,.F.);
#177=ADVANCED_FACE('',(#127,#128),#112,.T.);
#178=ADVANCED_FACE('',(#129,#130),#113,.F.);
#179=ADVANCED_FACE('',(#131,#132),#114,.F.);
#180=ADVANCED_FACE('',(#133,#134),#101,.T.);
#181=ADVANCED_FACE('',(#135,#136),#115,.T.);
#182=ADVANCED_FACE('',(#137,#138),#102,.T.);
#183=ADVANCED_FACE('',(#139,#140),#202,.T.);
#184=ADVANCED_FACE('',(#141,#142),#97,.T.);
#185=ADVANCED_FACE('',(#143,#144),#103,.T.);
#186=ADVANCED_FACE('',(#145,#146),#203,.T.);
#187=ADVANCED_FACE('',(#147,#148),#104,.T.);
#188=ADVANCED_FACE('',(#149,#150),#116,.T.);
#189=ADVANCED_FACE('',(#151,#152),#105,.T.);
#190=ADVANCED_FACE('',(#153,#154),#117,.T.);
#191=ADVANCED_FACE('',(#155,#156),#98,.F.);
#192=ADVANCED_FACE('',(#157,#158),#106,.T.);
#193=ADVANCED_FACE('',(#159,#160),#118,.T.);
#194=ADVANCED_FACE('',(#161,#162),#107,.T.);
#195=ADVANCED_FACE('',(#163,#164),#119,.T.);
#196=ADVANCED_FACE('',(#165,#166),#108,.T.);
#197=ADVANCED_FACE('',(#167,#168),#99,.F.);
#198=ADVANCED_FACE('',(#169,#170),#120,.T.);
#199=ADVANCED_FACE('',(#171,#172),#109,.T.);
#200=ADVANCED_FACE('',(#206),#204,.T.);
#201=PLANE('',#398);
#202=PLANE('',#418);
#203=PLANE('',#424);
#204=PLANE('',#451);
#205=FACE_OUTER_BOUND('',#207,.T.);
#206=FACE_OUTER_BOUND('',#260,.T.);
#207=EDGE_LOOP('',(#261));
#208=EDGE_LOOP('',(#262));
#209=EDGE_LOOP('',(#263));
#210=EDGE_LOOP('',(#264));
#211=EDGE_LOOP('',(#265));
#212=EDGE_LOOP('',(#266));
#213=EDGE_LOOP('',(#267));
#214=EDGE_LOOP('',(#268));
#215=EDGE_LOOP('',(#269));
#216=EDGE_LOOP('',(#270));
#217=EDGE_LOOP('',(#271));
#218=EDGE_LOOP('',(#272));
#219=EDGE_LOOP('',(#273));
#220=EDGE_LOOP('',(#274));
#221=EDGE_LOOP('',(#275));
#222=EDGE_LOOP('',(#276));
#223=EDGE_LOOP('',(#277));
#224=EDGE_LOOP('',(#278));
#225=EDGE_LOOP('',(#279));
#226=EDGE_LOOP('',(#280));
#227=EDGE_LOOP('',(#281));
#228=EDGE_LOOP('',(#282));
#229=EDGE_LOOP('',(#283));
#230=EDGE_LOOP('',(#284));
#231=EDGE_LOOP('',(#285));
#232=EDGE_LOOP('',(#286));
#233=EDGE_LOOP('',(#287));
#234=EDGE_LOOP('',(#288));
#235=EDGE_LOOP('',(#289));
#236=EDGE_LOOP('',(#290));
#237=EDGE_LOOP('',(#291));
#238=EDGE_LOOP('',(#292));
#239=EDGE_LOOP('',(#293));
#240=EDGE_LOOP('',(#294));
#241=EDGE_LOOP('',(#295));
#242=EDGE_LOOP('',(#296));
#243=EDGE_LOOP('',(#297));
#244=EDGE_LOOP('',(#298));
#245=EDGE_LOOP('',(#299));
#246=EDGE_LOOP('',(#300));
#247=EDGE_LOOP('',(#301));
#248=EDGE_LOOP('',(#302));
#249=EDGE_LOOP('',(#303));
#250=EDGE_LOOP('',(#304));
#251=EDGE_LOOP('',(#305));
#252=EDGE_LOOP('',(#306));
#253=EDGE_LOOP('',(#307));
#254=EDGE_LOOP('',(#308));
#255=EDGE_LOOP('',(#309));
#256=EDGE_LOOP('',(#310));
#257=EDGE_LOOP('',(#311));
#258=EDGE_LOOP('',(#312));
#259=EDGE_LOOP('',(#313));
#260=EDGE_LOOP('',(#314));
#261=ORIENTED_EDGE('',*,*,#342,.T.);
#262=ORIENTED_EDGE('',*,*,#343,.T.);
#263=ORIENTED_EDGE('',*,*,#342,.F.);
#264=ORIENTED_EDGE('',*,*,#344,.F.);
#265=ORIENTED_EDGE('',*,*,#343,.F.);
#266=ORIENTED_EDGE('',*,*,#345,.T.);
#267=ORIENTED_EDGE('',*,*,#344,.T.);
#268=ORIENTED_EDGE('',*,*,#346,.F.);
#269=ORIENTED_EDGE('',*,*,#347,.T.);
#270=ORIENTED_EDGE('',*,*,#348,.T.);
#271=ORIENTED_EDGE('',*,*,#345,.F.);
#272=ORIENTED_EDGE('',*,*,#346,.T.);
#273=ORIENTED_EDGE('',*,*,#348,.F.);
#274=ORIENTED_EDGE('',*,*,#347,.F.);
#275=ORIENTED_EDGE('',*,*,#349,.T.);
#276=ORIENTED_EDGE('',*,*,#350,.T.);
#277=ORIENTED_EDGE('',*,*,#349,.F.);
#278=ORIENTED_EDGE('',*,*,#351,.T.);
#279=ORIENTED_EDGE('',*,*,#350,.F.);
#280=ORIENTED_EDGE('',*,*,#352,.T.);
#281=ORIENTED_EDGE('',*,*,#351,.F.);
#282=ORIENTED_EDGE('',*,*,#353,.T.);
#283=ORIENTED_EDGE('',*,*,#352,.F.);
#284=ORIENTED_EDGE('',*,*,#354,.T.);
#285=ORIENTED_EDGE('',*,*,#353,.F.);
#286=ORIENTED_EDGE('',*,*,#355,.T.);
#287=ORIENTED_EDGE('',*,*,#354,.F.);
#288=ORIENTED_EDGE('',*,*,#356,.T.);
#289=ORIENTED_EDGE('',*,*,#355,.F.);
#290=ORIENTED_EDGE('',*,*,#357,.T.);
#291=ORIENTED_EDGE('',*,*,#356,.F.);
#292=ORIENTED_EDGE('',*,*,#358,.T.);
#293=ORIENTED_EDGE('',*,*,#357,.F.);
#294=ORIENTED_EDGE('',*,*,#359,.T.);
#295=ORIENTED_EDGE('',*,*,#358,.F.);
#296=ORIENTED_EDGE('',*,*,#360,.T.);
#297=ORIENTED_EDGE('',*,*,#359,.F.);
#298=ORIENTED_EDGE('',*,*,#361,.T.);
#299=ORIENTED_EDGE('',*,*,#360,.F.);
#300=ORIENTED_EDGE('',*,*,#362,.T.);
#301=ORIENTED_EDGE('',*,*,#361,.F.);
#302=ORIENTED_EDGE('',*,*,#363,.T.);
#303=ORIENTED_EDGE('',*,*,#362,.F.);
#304=ORIENTED_EDGE('',*,*,#364,.T.);
#305=ORIENTED_EDGE('',*,*,#363,.F.);
#306=ORIENTED_EDGE('',*,*,#365,.T.);
#307=ORIENTED_EDGE('',*,*,#364,.F.);
#308=ORIENTED_EDGE('',*,*,#366,.T.);
#309=ORIENTED_EDGE('',*,*,#365,.F.);
#310=ORIENTED_EDGE('',*,*,#367,.T.);
#311=ORIENTED_EDGE('',*,*,#366,.F.);
#312=ORIENTED_EDGE('',*,*,#368,.T.);
#313=ORIENTED_EDGE('',*,*,#367,.F.);
#314=ORIENTED_EDGE('',*,*,#368,.F.);
#315=VERTEX_POINT('',#566);
#316=VERTEX_POINT('',#569);
#317=VERTEX_POINT('',#572);
#318=VERTEX_POINT('',#575);
#319=VERTEX_POINT('',#578);
#320=VERTEX_POINT('',#580);
#321=VERTEX_POINT('',#583);
#322=VERTEX_POINT('',#587);
#323=VERTEX_POINT('',#590);
#324=VERTEX_POINT('',#593);
#325=VERTEX_POINT('',#596);
#326=VERTEX_POINT('',#599);
#327=VERTEX_POINT('',#602);
#328=VERTEX_POINT('',#605);
#329=VERTEX_POINT('',#608);
#330=VERTEX_POINT('',#611);
#331=VERTEX_POINT('',#614);
#332=VERTEX_POINT('',#617);
#333=VERTEX_POINT('',#620);
#334=VERTEX_POINT('',#623);
#335=VERTEX_POINT('',#626);
#336=VERTEX_POINT('',#629);
#337=VERTEX_POINT('',#632);
#338=VERTEX_POINT('',#635);
#339=VERTEX_POINT('',#638);
#340=VERTEX_POINT('',#641);
#341=VERTEX_POINT('',#644);
#342=EDGE_CURVE('',#315,#315,#369,.T.);
#343=EDGE_CURVE('',#316,#316,#370,.T.);
#344=EDGE_CURVE('',#317,#317,#371,.T.);
#345=EDGE_CURVE('',#318,#318,#372,.T.);
#346=EDGE_CURVE('',#319,#319,#373,.T.);
#347=EDGE_CURVE('',#320,#320,#374,.T.);
#348=EDGE_CURVE('',#321,#321,#375,.T.);
#349=EDGE_CURVE('',#322,#322,#376,.T.);
#350=EDGE_CURVE('',#323,#323,#377,.T.);
#351=EDGE_CURVE('',#324,#324,#378,.T.);
#352=EDGE_CURVE('',#325,#325,#379,.T.);
#353=EDGE_CURVE('',#326,#326,#380,.T.);
#354=EDGE_CURVE('',#327,#327,#381,.T.);
#355=EDGE_CURVE('',#328,#328,#382,.T.);
#356=EDGE_CURVE('',#329,#329,#383,.T.);
#357=EDGE_CURVE('',#330,#330,#384,.T.);
#358=EDGE_CURVE('',#331,#331,#385,.T.);
#359=EDGE_CURVE('',#332,#332,#386,.T.);
#360=EDGE_CURVE('',#333,#333,#387,.T.);
#361=EDGE_CURVE('',#334,#334,#388,.T.);
#362=EDGE_CURVE('',#335,#335,#389,.T.);
#363=EDGE_CURVE('',#336,#336,#390,.T.);
#364=EDGE_CURVE('',#337,#337,#391,.T.);
#365=EDGE_CURVE('',#338,#338,#392,.T.);
#366=EDGE_CURVE('',#339,#339,#393,.T.);
#367=EDGE_CURVE('',#340,#340,#394,.T.);
#368=EDGE_CURVE('',#341,#341,#395,.T.);
#369=CIRCLE('',#397,0.517949192431114);
#370=CIRCLE('',#399,4.25);
#371=CIRCLE('',#401,4.25);
#372=CIRCLE('',#403,3.63642130996436);
#373=CIRCLE('',#405,4.60314763740251);
#374=CIRCLE('',#406,5.5);
#375=CIRCLE('',#408,4.20958890178084);
#376=CIRCLE('',#411,5.5);
#377=CIRCLE('',#413,5.7);
#378=CIRCLE('',#415,5.7);
#379=CIRCLE('',#417,6.2);
#380=CIRCLE('',#419,6.5);
#381=CIRCLE('',#421,6.5);
#382=CIRCLE('',#423,5.7);
#383=CIRCLE('',#425,5.7);
#384=CIRCLE('',#427,6.5);
#385=CIRCLE('',#429,6.5);
#386=CIRCLE('',#431,4.99233734943967);
#387=CIRCLE('',#433,4.25);
#388=CIRCLE('',#435,4.25);
#389=CIRCLE('',#437,4.15000000000001);
#390=CIRCLE('',#439,4.15000000000001);
#391=CIRCLE('',#441,4.25000000000001);
#392=CIRCLE('',#443,4.25);
#393=CIRCLE('',#445,4.5);
#394=CIRCLE('',#447,4.75);
#395=CIRCLE('',#449,4.75);
#396=AXIS2_PLACEMENT_3D('',#564,#452,#453);
#397=AXIS2_PLACEMENT_3D('',#565,#454,#455);
#398=AXIS2_PLACEMENT_3D('',#567,#456,#457);
#399=AXIS2_PLACEMENT_3D('',#568,#458,#459);
#400=AXIS2_PLACEMENT_3D('',#570,#460,#461);
#401=AXIS2_PLACEMENT_3D('',#571,#462,#463);
#402=AXIS2_PLACEMENT_3D('',#573,#464,#465);
#403=AXIS2_PLACEMENT_3D('',#574,#466,#467);
#404=AXIS2_PLACEMENT_3D('',#576,#468,#469);
#405=AXIS2_PLACEMENT_3D('',#577,#470,#471);
#406=AXIS2_PLACEMENT_3D('',#579,#472,#473);
#407=AXIS2_PLACEMENT_3D('',#581,#474,#475);
#408=AXIS2_PLACEMENT_3D('',#582,#476,#477);
#409=AXIS2_PLACEMENT_3D('',#584,#478,#479);
#410=AXIS2_PLACEMENT_3D('',#585,#480,#481);
#411=AXIS2_PLACEMENT_3D('',#586,#482,#483);
#412=AXIS2_PLACEMENT_3D('',#588,#484,#485);
#413=AXIS2_PLACEMENT_3D('',#589,#486,#487);
#414=AXIS2_PLACEMENT_3D('',#591,#488,#489);
#415=AXIS2_PLACEMENT_3D('',#592,#490,#491);
#416=AXIS2_PLACEMENT_3D('',#594,#492,#493);
#417=AXIS2_PLACEMENT_3D('',#595,#494,#495);
#418=AXIS2_PLACEMENT_3D('',#597,#496,#497);
#419=AXIS2_PLACEMENT_3D('',#598,#498,#499);
#420=AXIS2_PLACEMENT_3D('',#600,#500,#501);
#421=AXIS2_PLACEMENT_3D('',#601,#502,#503);
#422=AXIS2_PLACEMENT_3D('',#603,#504,#505);
#423=AXIS2_PLACEMENT_3D('',#604,#506,#507);
#424=AXIS2_PLACEMENT_3D('',#606,#508,#509);
#425=AXIS2_PLACEMENT_3D('',#607,#510,#511);
#426=AXIS2_PLACEMENT_3D('',#609,#512,#513);
#427=AXIS2_PLACEMENT_3D('',#610,#514,#515);
#428=AXIS2_PLACEMENT_3D('',#612,#516,#517);
#429=AXIS2_PLACEMENT_3D('',#613,#518,#519);
#430=AXIS2_PLACEMENT_3D('',#615,#520,#521);
#431=AXIS2_PLACEMENT_3D('',#616,#522,#523);
#432=AXIS2_PLACEMENT_3D('',#618,#524,#525);
#433=AXIS2_PLACEMENT_3D('',#619,#526,#527);
#434=AXIS2_PLACEMENT_3D('',#621,#528,#529);
#435=AXIS2_PLACEMENT_3D('',#622,#530,#531);
#436=AXIS2_PLACEMENT_3D('',#624,#532,#533);
#437=AXIS2_PLACEMENT_3D('',#625,#534,#535);
#438=AXIS2_PLACEMENT_3D('',#627,#536,#537);
#439=AXIS2_PLACEMENT_3D('',#628,#538,#539);
#440=AXIS2_PLACEMENT_3D('',#630,#540,#541);
#441=AXIS2_PLACEMENT_3D('',#631,#542,#543);
#442=AXIS2_PLACEMENT_3D('',#633,#544,#545);
#443=AXIS2_PLACEMENT_3D('',#634,#546,#547);
#444=AXIS2_PLACEMENT_3D('',#636,#548,#549);
#445=AXIS2_PLACEMENT_3D('',#637,#550,#551);
#446=AXIS2_PLACEMENT_3D('',#639,#552,#553);
#447=AXIS2_PLACEMENT_3D('',#640,#554,#555);
#448=AXIS2_PLACEMENT_3D('',#642,#556,#557);
#449=AXIS2_PLACEMENT_3D('',#643,#558,#559);
#450=AXIS2_PLACEMENT_3D('',#645,#560,#561);
#451=AXIS2_PLACEMENT_3D('',#646,#562,#563);
#452=DIRECTION('',(0.,0.,1.));
#453=DIRECTION('',(1.,0.,0.));
#454=DIRECTION('',(0.,0.,-1.));
#455=DIRECTION('',(-1.,0.,0.));
#456=DIRECTION('',(0.,0.,-1.));
#457=DIRECTION('',(-1.,0.,0.));
#458=DIRECTION('',(0.,0.,-1.));
#459=DIRECTION('',(-1.,0.,0.));
#460=DIRECTION('',(0.,0.,-1.));
#461=DIRECTION('',(-1.,0.,0.));
#462=DIRECTION('',(0.,0.,1.));
#463=DIRECTION('',(1.,0.,0.));
#464=DIRECTION('',(0.,0.,-1.));
#465=DIRECTION('',(-1.,0.,0.));
#466=DIRECTION('',(0.,0.,-1.));
#467=DIRECTION('',(-1.,0.,0.));
#468=DIRECTION('',(0.,0.,1.));
#469=DIRECTION('',(1.,0.,-1.49358355288806E-016));
#470=DIRECTION('',(0.,0.,-1.));
#471=DIRECTION('',(-1.,0.,0.));
#472=DIRECTION('',(0.,0.,-1.));
#473=DIRECTION('',(1.,0.,0.));
#474=DIRECTION('',(0.,0.,1.));
#475=DIRECTION('',(1.,0.,-7.45053097793077E-017));
#476=DIRECTION('',(0.,0.,-1.));
#477=DIRECTION('',(-1.,0.,0.));
#478=DIRECTION('',(0.,0.,-1.));
#479=DIRECTION('',(-1.,0.,-2.97153781558854E-016));
#480=DIRECTION('',(0.,0.,-1.));
#481=DIRECTION('',(-1.,0.,-1.35404240879347E-017));
#482=DIRECTION('',(0.,0.,-1.));
#483=DIRECTION('',(-1.,0.,0.));
#484=DIRECTION('',(0.,0.,-1.));
#485=DIRECTION('',(-1.,0.,0.));
#486=DIRECTION('',(0.,0.,-1.));
#487=DIRECTION('',(-1.,0.,0.));
#488=DIRECTION('',(0.,0.,1.));
#489=DIRECTION('',(1.,0.,0.));
#490=DIRECTION('',(0.,0.,-1.));
#491=DIRECTION('',(-1.,0.,0.));
#492=DIRECTION('',(0.,0.,-1.));
#493=DIRECTION('',(-1.,0.,0.));
#494=DIRECTION('',(0.,0.,-1.));
#495=DIRECTION('',(-1.,0.,0.));
#496=DIRECTION('',(0.,0.,-1.));
#497=DIRECTION('',(-1.,0.,0.));
#498=DIRECTION('',(0.,0.,-1.));
#499=DIRECTION('',(-1.,0.,0.));
#500=DIRECTION('',(0.,0.,-1.));
#501=DIRECTION('',(-1.,0.,0.));
#502=DIRECTION('',(0.,0.,-1.));
#503=DIRECTION('',(-1.,0.,0.));
#504=DIRECTION('',(0.,0.,-1.));
#505=DIRECTION('',(-1.,0.,0.));
#506=DIRECTION('',(0.,0.,-1.));
#507=DIRECTION('',(-1.,0.,0.));
#508=DIRECTION('',(0.,0.,1.));
#509=DIRECTION('',(1.,0.,0.));
#510=DIRECTION('',(0.,0.,-1.));
#511=DIRECTION('',(-1.,0.,0.));
#512=DIRECTION('',(0.,0.,-1.));
#513=DIRECTION('',(-1.,0.,0.));
#514=DIRECTION('',(0.,0.,-1.));
#515=DIRECTION('',(-1.,0.,0.));
#516=DIRECTION('',(0.,0.,1.));
#517=DIRECTION('',(1.,0.,6.89956637556651E-018));
#518=DIRECTION('',(0.,0.,-1.));
#519=DIRECTION('',(-1.,0.,0.));
#520=DIRECTION('',(0.,0.,-1.));
#521=DIRECTION('',(-1.,0.,0.));
#522=DIRECTION('',(0.,0.,-1.));
#523=DIRECTION('',(-1.,0.,0.));
#524=DIRECTION('',(0.,0.,-1.));
#525=DIRECTION('',(-1.,0.,-9.69764221895723E-018));
#526=DIRECTION('',(0.,0.,-1.));
#527=DIRECTION('',(-1.,0.,0.));
#528=DIRECTION('',(0.,0.,-1.));
#529=DIRECTION('',(-1.,0.,0.));
#530=DIRECTION('',(0.,0.,-1.));
#531=DIRECTION('',(-1.,0.,0.));
#532=DIRECTION('',(0.,0.,-1.));
#533=DIRECTION('',(-1.,0.,0.));
#534=DIRECTION('',(0.,0.,-1.));
#535=DIRECTION('',(-1.,0.,0.));
#536=DIRECTION('',(0.,0.,-1.));
#537=DIRECTION('',(-1.,0.,3.45476420408613E-017));
#538=DIRECTION('',(0.,0.,-1.));
#539=DIRECTION('',(-1.,0.,0.));
#540=DIRECTION('',(0.,0.,-1.));
#541=DIRECTION('',(-1.,0.,0.));
#542=DIRECTION('',(0.,0.,-1.));
#543=DIRECTION('',(-1.,0.,0.));
#544=DIRECTION('',(0.,0.,1.));
#545=DIRECTION('',(1.,0.,6.91021650540948E-018));
#546=DIRECTION('',(0.,0.,-1.));
#547=DIRECTION('',(-1.,0.,0.));
#548=DIRECTION('',(0.,0.,-1.));
#549=DIRECTION('',(-1.,0.,0.));
#550=DIRECTION('',(0.,0.,-1.));
#551=DIRECTION('',(-1.,0.,0.));
#552=DIRECTION('',(0.,0.,-1.));
#553=DIRECTION('',(-1.,0.,0.));
#554=DIRECTION('',(0.,0.,-1.));
#555=DIRECTION('',(-1.,0.,0.));
#556=DIRECTION('',(0.,0.,1.));
#557=DIRECTION('',(1.,0.,-2.99684317052383E-017));
#558=DIRECTION('',(0.,0.,-1.));
#559=DIRECTION('',(-1.,0.,0.));
#560=DIRECTION('',(0.,0.,-1.));
#561=DIRECTION('',(-1.,0.,0.));
#562=DIRECTION('',(0.,0.,1.));
#563=DIRECTION('',(1.,0.,0.));
#564=CARTESIAN_POINT('',(0.,0.,0.));
#565=CARTESIAN_POINT('',(0.,0.,0.));
#566=CARTESIAN_POINT('',(-0.517949192431114,0.,0.));
#567=CARTESIAN_POINT('',(0.,0.,0.));
#568=CARTESIAN_POINT('',(0.,0.,-1.));
#569=CARTESIAN_POINT('',(-4.25,0.,-1.));
#570=CARTESIAN_POINT('',(0.,0.,0.));
#571=CARTESIAN_POINT('',(0.,0.,-9.95047016064417));
#572=CARTESIAN_POINT('',(4.25,0.,-9.95047016064417));
#573=CARTESIAN_POINT('',(0.,0.,0.));
#574=CARTESIAN_POINT('',(0.,0.,-13.3280430006014));
#575=CARTESIAN_POINT('',(-3.63642130996436,0.,-13.3280430006014));
#576=CARTESIAN_POINT('',(0.,0.,-10.3936863277902));
#577=CARTESIAN_POINT('',(0.,0.,-15.));
#578=CARTESIAN_POINT('',(-4.60314763740251,0.,-15.));
#579=CARTESIAN_POINT('',(0.,0.,-10.0630877008052));
#580=CARTESIAN_POINT('',(5.5,0.,-10.0630877008052));
#581=CARTESIAN_POINT('',(0.,0.,-15.));
#582=CARTESIAN_POINT('',(0.,0.,-14.9285050937768));
#583=CARTESIAN_POINT('',(-4.20958890178084,0.,-14.9285050937768));
#584=CARTESIAN_POINT('',(0.,0.,-13.832563618699));
#585=CARTESIAN_POINT('',(0.,0.,-14.9285050937768));
#586=CARTESIAN_POINT('',(0.,0.,0.));
#587=CARTESIAN_POINT('',(-5.5,0.,0.));
#588=CARTESIAN_POINT('',(0.,0.,0.));
#589=CARTESIAN_POINT('',(0.,0.,0.746410161513774));
#590=CARTESIAN_POINT('',(-5.7,0.,0.746410161513774));
#591=CARTESIAN_POINT('',(0.,0.,0.));
#592=CARTESIAN_POINT('',(0.,0.,5.));
#593=CARTESIAN_POINT('',(-5.7,0.,5.));
#594=CARTESIAN_POINT('',(0.,0.,0.));
#595=CARTESIAN_POINT('',(0.,0.,5.));
#596=CARTESIAN_POINT('',(-6.2,0.,5.));
#597=CARTESIAN_POINT('',(5.7,0.,5.));
#598=CARTESIAN_POINT('',(0.,0.,5.3));
#599=CARTESIAN_POINT('',(-6.5,0.,5.3));
#600=CARTESIAN_POINT('',(0.,0.,5.3));
#601=CARTESIAN_POINT('',(0.,0.,5.8));
#602=CARTESIAN_POINT('',(-6.5,0.,5.8));
#603=CARTESIAN_POINT('',(0.,0.,0.));
#604=CARTESIAN_POINT('',(0.,0.,5.8));
#605=CARTESIAN_POINT('',(-5.7,0.,5.8));
#606=CARTESIAN_POINT('',(6.5,0.,5.8));
#607=CARTESIAN_POINT('',(0.,0.,8.));
#608=CARTESIAN_POINT('',(-5.7,0.,8.));
#609=CARTESIAN_POINT('',(0.,0.,0.));
#610=CARTESIAN_POINT('',(0.,0.,8.8));
#611=CARTESIAN_POINT('',(-6.5,0.,8.8));
#612=CARTESIAN_POINT('',(0.,0.,8.));
#613=CARTESIAN_POINT('',(0.,0.,9.4));
#614=CARTESIAN_POINT('',(-6.5,0.,9.4));
#615=CARTESIAN_POINT('',(0.,0.,0.));
#616=CARTESIAN_POINT('',(0.,0.,9.80204337348276));
#617=CARTESIAN_POINT('',(-4.99233734943967,0.,9.80204337348276));
#618=CARTESIAN_POINT('',(0.,0.,9.4));
#619=CARTESIAN_POINT('',(0.,0.,10.768278313084));
#620=CARTESIAN_POINT('',(-4.25,0.,10.768278313084));
#621=CARTESIAN_POINT('',(0.,0.,10.768278313084));
#622=CARTESIAN_POINT('',(0.,0.,25.8));
#623=CARTESIAN_POINT('',(-4.25,0.,25.8));
#624=CARTESIAN_POINT('',(0.,0.,0.));
#625=CARTESIAN_POINT('',(0.,0.,25.9));
#626=CARTESIAN_POINT('',(-4.15000000000001,0.,25.9));
#627=CARTESIAN_POINT('',(0.,0.,25.8));
#628=CARTESIAN_POINT('',(0.,0.,26.1));
#629=CARTESIAN_POINT('',(-4.15000000000001,0.,26.1));
#630=CARTESIAN_POINT('',(0.,0.,0.));
#631=CARTESIAN_POINT('',(0.,0.,26.2));
#632=CARTESIAN_POINT('',(-4.25000000000001,0.,26.2));
#633=CARTESIAN_POINT('',(0.,0.,26.1));
#634=CARTESIAN_POINT('',(0.,0.,26.4226497308104));
#635=CARTESIAN_POINT('',(-4.25,0.,26.4226497308104));
#636=CARTESIAN_POINT('',(0.,0.,0.));
#637=CARTESIAN_POINT('',(0.,0.,26.8556624327026));
#638=CARTESIAN_POINT('',(-4.5,0.,26.8556624327026));
#639=CARTESIAN_POINT('',(0.,0.,26.4226497308104));
#640=CARTESIAN_POINT('',(0.,0.,27.));
#641=CARTESIAN_POINT('',(-4.75,0.,27.));
#642=CARTESIAN_POINT('',(0.,0.,26.8556624327026));
#643=CARTESIAN_POINT('',(0.,0.,28.));
#644=CARTESIAN_POINT('',(-4.75,0.,28.));
#645=CARTESIAN_POINT('',(0.,0.,0.));
#646=CARTESIAN_POINT('',(4.75,0.,28.));
#647=(
GEOMETRIC_REPRESENTATION_CONTEXT(3)
GLOBAL_UNCERTAINTY_ASSIGNED_CONTEXT((#648))
GLOBAL_UNIT_ASSIGNED_CONTEXT((#654,#650,#649))
REPRESENTATION_CONTEXT('N_02_080_0004_X__3D_Modell',
'TOP_LEVEL_ASSEMBLY_PART')
);
#648=UNCERTAINTY_MEASURE_WITH_UNIT(LENGTH_MEASURE(2.E-005),#654,
'DISTANCE_ACCURACY_VALUE','Maximum Tolerance applied to model');
#649=(
NAMED_UNIT(*)
SI_UNIT($,.STERADIAN.)
SOLID_ANGLE_UNIT()
);
#650=(
CONVERSION_BASED_UNIT('DEGREE',#652)
NAMED_UNIT(#651)
PLANE_ANGLE_UNIT()
);
#651=DIMENSIONAL_EXPONENTS(0.,0.,0.,0.,0.,0.,0.);
#652=PLANE_ANGLE_MEASURE_WITH_UNIT(PLANE_ANGLE_MEASURE(0.0174532925),#653);
#653=(
NAMED_UNIT(*)
PLANE_ANGLE_UNIT()
SI_UNIT($,.RADIAN.)
);
#654=(
LENGTH_UNIT()
NAMED_UNIT(*)
SI_UNIT(.MILLI.,.METRE.)
);
ENDSEC;
END-ISO-10303-21;
