ISO-10303-21;
HEADER;
/* Generated by software containing ST-Developer
 * from STEP Tools, Inc. (www.steptools.com) 
 */
/* OPTION: using custom schema-name function */

FILE_DESCRIPTION(
/* description */ (''),
/* implementation_level */ '2;1');

FILE_NAME(
/* name */ '',
/* time_stamp */ '2015-06-01T08:46:22+02:00',
/* author */ (''),
/* organization */ (''),
/* preprocessor_version */ 'ST-DEVELOPER v11',
/* originating_system */ 'SIEMENS PLM Software NX 7.5',
/* authorisation */ '');

FILE_SCHEMA (('CONFIG_CONTROL_DESIGN'));
ENDSEC;

DATA;
#10=SHAPE_REPRESENTATION_RELATIONSHIP('None',
'relationship between N 02 080 0005 (1)_02-None and N 02 080 0005 (1)_0
2-None',#94,#11);
#11=ADVANCED_BREP_SHAPE_REPRESENTATION('N 02 080 0005 (1)_02-None',(#95),
#727);
#12=CC_DESIGN_APPROVAL(#24,(#82));
#13=CC_DESIGN_APPROVAL(#25,(#84));
#14=CC_DESIGN_APPROVAL(#26,(#31));
#15=APPROVAL_PERSON_ORGANIZATION(#69,#24,#18);
#16=APPROVAL_PERSON_ORGANIZATION(#70,#25,#19);
#17=APPROVAL_PERSON_ORGANIZATION(#71,#26,#20);
#18=APPROVAL_ROLE('approver');
#19=APPROVAL_ROLE('approver');
#20=APPROVAL_ROLE('approver');
#21=APPROVAL_DATE_TIME(#39,#24);
#22=APPROVAL_DATE_TIME(#40,#25);
#23=APPROVAL_DATE_TIME(#41,#26);
#24=APPROVAL(#27,' ');
#25=APPROVAL(#28,' ');
#26=APPROVAL(#29,' ');
#27=APPROVAL_STATUS('not_yet_approved');
#28=APPROVAL_STATUS('not_yet_approved');
#29=APPROVAL_STATUS('not_yet_approved');
#30=CC_DESIGN_SECURITY_CLASSIFICATION(#31,(#84));
#31=SECURITY_CLASSIFICATION(' ',' ',#32);
#32=SECURITY_CLASSIFICATION_LEVEL('confidential');
#33=CC_DESIGN_DATE_AND_TIME_ASSIGNMENT(#37,#35,(#82));
#34=CC_DESIGN_DATE_AND_TIME_ASSIGNMENT(#38,#36,(#31));
#35=DATE_TIME_ROLE('creation_date');
#36=DATE_TIME_ROLE('classification_date');
#37=DATE_AND_TIME(#52,#42);
#38=DATE_AND_TIME(#53,#43);
#39=DATE_AND_TIME(#54,#44);
#40=DATE_AND_TIME(#55,#45);
#41=DATE_AND_TIME(#56,#46);
#42=LOCAL_TIME(0,0,0.,#47);
#43=LOCAL_TIME(0,0,0.,#48);
#44=LOCAL_TIME(0,0,0.,#49);
#45=LOCAL_TIME(0,0,0.,#50);
#46=LOCAL_TIME(0,0,0.,#51);
#47=COORDINATED_UNIVERSAL_TIME_OFFSET(0,0,.BEHIND.);
#48=COORDINATED_UNIVERSAL_TIME_OFFSET(0,0,.BEHIND.);
#49=COORDINATED_UNIVERSAL_TIME_OFFSET(0,0,.BEHIND.);
#50=COORDINATED_UNIVERSAL_TIME_OFFSET(0,0,.BEHIND.);
#51=COORDINATED_UNIVERSAL_TIME_OFFSET(0,0,.BEHIND.);
#52=CALENDAR_DATE(0,1,1);
#53=CALENDAR_DATE(0,1,1);
#54=CALENDAR_DATE(0,1,1);
#55=CALENDAR_DATE(0,1,1);
#56=CALENDAR_DATE(0,1,1);
#57=CC_DESIGN_PERSON_AND_ORGANIZATION_ASSIGNMENT(#65,#61,(#82,#84));
#58=CC_DESIGN_PERSON_AND_ORGANIZATION_ASSIGNMENT(#66,#62,(#86));
#59=CC_DESIGN_PERSON_AND_ORGANIZATION_ASSIGNMENT(#67,#63,(#84));
#60=CC_DESIGN_PERSON_AND_ORGANIZATION_ASSIGNMENT(#68,#64,(#31));
#61=PERSON_AND_ORGANIZATION_ROLE('creator');
#62=PERSON_AND_ORGANIZATION_ROLE('design_owner');
#63=PERSON_AND_ORGANIZATION_ROLE('design_supplier');
#64=PERSON_AND_ORGANIZATION_ROLE('classification_officer');
#65=PERSON_AND_ORGANIZATION(#79,#72);
#66=PERSON_AND_ORGANIZATION(#79,#73);
#67=PERSON_AND_ORGANIZATION(#79,#74);
#68=PERSON_AND_ORGANIZATION(#79,#75);
#69=PERSON_AND_ORGANIZATION(#79,#76);
#70=PERSON_AND_ORGANIZATION(#79,#77);
#71=PERSON_AND_ORGANIZATION(#79,#78);
#72=ORGANIZATION(' ',' ',' ');
#73=ORGANIZATION(' ',' ',' ');
#74=ORGANIZATION(' ',' ',' ');
#75=ORGANIZATION(' ',' ',' ');
#76=ORGANIZATION(' ',' ',' ');
#77=ORGANIZATION(' ',' ',' ');
#78=ORGANIZATION(' ',' ',' ');
#79=PERSON(' ',' ',' ',(' '),$,$);
#80=SHAPE_DEFINITION_REPRESENTATION(#81,#94);
#81=PRODUCT_DEFINITION_SHAPE('','',#82);
#82=PRODUCT_DEFINITION(' ','',#84,#83);
#83=DESIGN_CONTEXT('',#93,'design');
#84=PRODUCT_DEFINITION_FORMATION_WITH_SPECIFIED_SOURCE(' ',' ',#86,.NOT_KNOWN.);
#85=PRODUCT_RELATED_PRODUCT_CATEGORY('detail','',(#86));
#86=PRODUCT('N 02 080 0005 (1)_02','N 02 080 0005 (1)_02',' ',(#91));
#87=PRODUCT_CATEGORY_RELATIONSHIP(' ',' ',#89,#90);
#88=PRODUCT_CATEGORY_RELATIONSHIP('','',#90,#85);
#89=PRODUCT_CATEGORY('part',' ');
#90=PRODUCT_CATEGORY(' ','');
#91=MECHANICAL_CONTEXT(' ',#93,'mechanical');
#92=APPLICATION_PROTOCOL_DEFINITION('international standard',
'config_control_design',1994,#93);
#93=APPLICATION_CONTEXT(
'configuration controlled 3D designs of mechanical parts and assemblies');
#94=SHAPE_REPRESENTATION('N 02 080 0005 (1)_02-None',(#440),#727);
#95=MANIFOLD_SOLID_BREP('',#96);
#96=CLOSED_SHELL('',(#185,#186,#187,#188,#189,#190,#191,#192,#193,#194,#195,
#196,#197,#198,#199,#200,#201,#202,#203,#204,#205,#206,#207,#208,#209,#210,
#211,#212,#213,#214,#215,#216));
#97=TOROIDAL_SURFACE('',#464,6.2,0.3);
#98=TOROIDAL_SURFACE('',#478,6.,1.);
#99=TOROIDAL_SURFACE('',#498,5.5,0.500000000000001);
#100=CYLINDRICAL_SURFACE('',#446,4.25);
#101=CYLINDRICAL_SURFACE('',#456,5.5);
#102=CYLINDRICAL_SURFACE('',#460,5.7);
#103=CYLINDRICAL_SURFACE('',#466,6.5);
#104=CYLINDRICAL_SURFACE('',#470,5.7);
#105=CYLINDRICAL_SURFACE('',#474,6.5);
#106=CYLINDRICAL_SURFACE('',#480,5.);
#107=CYLINDRICAL_SURFACE('',#484,4.90000000000001);
#108=CYLINDRICAL_SURFACE('',#488,5.00000000000001);
#109=CYLINDRICAL_SURFACE('',#492,4.90000000000001);
#110=CYLINDRICAL_SURFACE('',#496,5.00000000000001);
#111=CYLINDRICAL_SURFACE('',#502,5.5);
#112=CONICAL_SURFACE('',#444,0.517949192431114,75.);
#113=CONICAL_SURFACE('',#448,4.16948419527096,10.296217735701);
#114=CONICAL_SURFACE('',#451,4.60314763740251,10.2962177357011);
#115=CONICAL_SURFACE('',#453,3.81710341979368,19.703782264299);
#116=CONICAL_SURFACE('',#454,4.20958890178084,79.703782264299);
#117=CONICAL_SURFACE('',#458,5.5,14.9999999999999);
#118=CONICAL_SURFACE('',#472,5.7,45.0000000000001);
#119=CONICAL_SURFACE('',#476,6.5,68.1985905136481);
#120=CONICAL_SURFACE('',#482,5.,45.0000000000022);
#121=CONICAL_SURFACE('',#486,4.90000000000001,44.9999999999993);
#122=CONICAL_SURFACE('',#490,5.,44.9999999999993);
#123=CONICAL_SURFACE('',#494,4.90000000000001,44.9999999999993);
#124=CONICAL_SURFACE('',#500,5.25,60.0000000000002);
#125=FACE_BOUND('',#224,.T.);
#126=FACE_BOUND('',#225,.T.);
#127=FACE_BOUND('',#226,.T.);
#128=FACE_BOUND('',#227,.T.);
#129=FACE_BOUND('',#228,.T.);
#130=FACE_BOUND('',#229,.T.);
#131=FACE_BOUND('',#230,.T.);
#132=FACE_BOUND('',#231,.T.);
#133=FACE_BOUND('',#232,.T.);
#134=FACE_BOUND('',#233,.T.);
#135=FACE_BOUND('',#234,.T.);
#136=FACE_BOUND('',#235,.T.);
#137=FACE_BOUND('',#236,.T.);
#138=FACE_BOUND('',#237,.T.);
#139=FACE_BOUND('',#238,.T.);
#140=FACE_BOUND('',#239,.T.);
#141=FACE_BOUND('',#240,.T.);
#142=FACE_BOUND('',#241,.T.);
#143=FACE_BOUND('',#242,.T.);
#144=FACE_BOUND('',#243,.T.);
#145=FACE_BOUND('',#244,.T.);
#146=FACE_BOUND('',#245,.T.);
#147=FACE_BOUND('',#246,.T.);
#148=FACE_BOUND('',#247,.T.);
#149=FACE_BOUND('',#248,.T.);
#150=FACE_BOUND('',#249,.T.);
#151=FACE_BOUND('',#250,.T.);
#152=FACE_BOUND('',#251,.T.);
#153=FACE_BOUND('',#252,.T.);
#154=FACE_BOUND('',#253,.T.);
#155=FACE_BOUND('',#254,.T.);
#156=FACE_BOUND('',#255,.T.);
#157=FACE_BOUND('',#256,.T.);
#158=FACE_BOUND('',#257,.T.);
#159=FACE_BOUND('',#258,.T.);
#160=FACE_BOUND('',#259,.T.);
#161=FACE_BOUND('',#260,.T.);
#162=FACE_BOUND('',#261,.T.);
#163=FACE_BOUND('',#262,.T.);
#164=FACE_BOUND('',#263,.T.);
#165=FACE_BOUND('',#264,.T.);
#166=FACE_BOUND('',#265,.T.);
#167=FACE_BOUND('',#266,.T.);
#168=FACE_BOUND('',#267,.T.);
#169=FACE_BOUND('',#268,.T.);
#170=FACE_BOUND('',#269,.T.);
#171=FACE_BOUND('',#270,.T.);
#172=FACE_BOUND('',#271,.T.);
#173=FACE_BOUND('',#272,.T.);
#174=FACE_BOUND('',#273,.T.);
#175=FACE_BOUND('',#274,.T.);
#176=FACE_BOUND('',#275,.T.);
#177=FACE_BOUND('',#276,.T.);
#178=FACE_BOUND('',#277,.T.);
#179=FACE_BOUND('',#278,.T.);
#180=FACE_BOUND('',#279,.T.);
#181=FACE_BOUND('',#280,.T.);
#182=FACE_BOUND('',#281,.T.);
#183=FACE_BOUND('',#282,.T.);
#184=FACE_BOUND('',#283,.T.);
#185=ADVANCED_FACE('',(#221),#217,.T.);
#186=ADVANCED_FACE('',(#125,#126),#112,.F.);
#187=ADVANCED_FACE('',(#127,#128),#100,.F.);
#188=ADVANCED_FACE('',(#129,#130),#113,.F.);
#189=ADVANCED_FACE('',(#131,#132),#114,.T.);
#190=ADVANCED_FACE('',(#133,#134),#115,.F.);
#191=ADVANCED_FACE('',(#135,#136),#116,.F.);
#192=ADVANCED_FACE('',(#137,#138),#101,.T.);
#193=ADVANCED_FACE('',(#139,#140),#117,.T.);
#194=ADVANCED_FACE('',(#141,#142),#102,.T.);
#195=ADVANCED_FACE('',(#143,#144),#218,.T.);
#196=ADVANCED_FACE('',(#145,#146),#97,.T.);
#197=ADVANCED_FACE('',(#147,#148),#103,.T.);
#198=ADVANCED_FACE('',(#149,#150),#219,.T.);
#199=ADVANCED_FACE('',(#151,#152),#104,.T.);
#200=ADVANCED_FACE('',(#153,#154),#118,.T.);
#201=ADVANCED_FACE('',(#155,#156),#105,.T.);
#202=ADVANCED_FACE('',(#157,#158),#119,.T.);
#203=ADVANCED_FACE('',(#159,#160),#98,.F.);
#204=ADVANCED_FACE('',(#161,#162),#106,.T.);
#205=ADVANCED_FACE('',(#163,#164),#120,.T.);
#206=ADVANCED_FACE('',(#165,#166),#107,.T.);
#207=ADVANCED_FACE('',(#167,#168),#121,.T.);
#208=ADVANCED_FACE('',(#169,#170),#108,.T.);
#209=ADVANCED_FACE('',(#171,#172),#122,.T.);
#210=ADVANCED_FACE('',(#173,#174),#109,.T.);
#211=ADVANCED_FACE('',(#175,#176),#123,.T.);
#212=ADVANCED_FACE('',(#177,#178),#110,.T.);
#213=ADVANCED_FACE('',(#179,#180),#99,.F.);
#214=ADVANCED_FACE('',(#181,#182),#124,.T.);
#215=ADVANCED_FACE('',(#183,#184),#111,.T.);
#216=ADVANCED_FACE('',(#222),#220,.T.);
#217=PLANE('',#442);
#218=PLANE('',#462);
#219=PLANE('',#468);
#220=PLANE('',#503);
#221=FACE_OUTER_BOUND('',#223,.T.);
#222=FACE_OUTER_BOUND('',#284,.T.);
#223=EDGE_LOOP('',(#285));
#224=EDGE_LOOP('',(#286));
#225=EDGE_LOOP('',(#287));
#226=EDGE_LOOP('',(#288));
#227=EDGE_LOOP('',(#289));
#228=EDGE_LOOP('',(#290));
#229=EDGE_LOOP('',(#291));
#230=EDGE_LOOP('',(#292));
#231=EDGE_LOOP('',(#293));
#232=EDGE_LOOP('',(#294));
#233=EDGE_LOOP('',(#295));
#234=EDGE_LOOP('',(#296));
#235=EDGE_LOOP('',(#297));
#236=EDGE_LOOP('',(#298));
#237=EDGE_LOOP('',(#299));
#238=EDGE_LOOP('',(#300));
#239=EDGE_LOOP('',(#301));
#240=EDGE_LOOP('',(#302));
#241=EDGE_LOOP('',(#303));
#242=EDGE_LOOP('',(#304));
#243=EDGE_LOOP('',(#305));
#244=EDGE_LOOP('',(#306));
#245=EDGE_LOOP('',(#307));
#246=EDGE_LOOP('',(#308));
#247=EDGE_LOOP('',(#309));
#248=EDGE_LOOP('',(#310));
#249=EDGE_LOOP('',(#311));
#250=EDGE_LOOP('',(#312));
#251=EDGE_LOOP('',(#313));
#252=EDGE_LOOP('',(#314));
#253=EDGE_LOOP('',(#315));
#254=EDGE_LOOP('',(#316));
#255=EDGE_LOOP('',(#317));
#256=EDGE_LOOP('',(#318));
#257=EDGE_LOOP('',(#319));
#258=EDGE_LOOP('',(#320));
#259=EDGE_LOOP('',(#321));
#260=EDGE_LOOP('',(#322));
#261=EDGE_LOOP('',(#323));
#262=EDGE_LOOP('',(#324));
#263=EDGE_LOOP('',(#325));
#264=EDGE_LOOP('',(#326));
#265=EDGE_LOOP('',(#327));
#266=EDGE_LOOP('',(#328));
#267=EDGE_LOOP('',(#329));
#268=EDGE_LOOP('',(#330));
#269=EDGE_LOOP('',(#331));
#270=EDGE_LOOP('',(#332));
#271=EDGE_LOOP('',(#333));
#272=EDGE_LOOP('',(#334));
#273=EDGE_LOOP('',(#335));
#274=EDGE_LOOP('',(#336));
#275=EDGE_LOOP('',(#337));
#276=EDGE_LOOP('',(#338));
#277=EDGE_LOOP('',(#339));
#278=EDGE_LOOP('',(#340));
#279=EDGE_LOOP('',(#341));
#280=EDGE_LOOP('',(#342));
#281=EDGE_LOOP('',(#343));
#282=EDGE_LOOP('',(#344));
#283=EDGE_LOOP('',(#345));
#284=EDGE_LOOP('',(#346));
#285=ORIENTED_EDGE('',*,*,#378,.T.);
#286=ORIENTED_EDGE('',*,*,#379,.T.);
#287=ORIENTED_EDGE('',*,*,#378,.F.);
#288=ORIENTED_EDGE('',*,*,#380,.F.);
#289=ORIENTED_EDGE('',*,*,#379,.F.);
#290=ORIENTED_EDGE('',*,*,#381,.T.);
#291=ORIENTED_EDGE('',*,*,#380,.T.);
#292=ORIENTED_EDGE('',*,*,#382,.F.);
#293=ORIENTED_EDGE('',*,*,#383,.T.);
#294=ORIENTED_EDGE('',*,*,#384,.T.);
#295=ORIENTED_EDGE('',*,*,#381,.F.);
#296=ORIENTED_EDGE('',*,*,#382,.T.);
#297=ORIENTED_EDGE('',*,*,#384,.F.);
#298=ORIENTED_EDGE('',*,*,#383,.F.);
#299=ORIENTED_EDGE('',*,*,#385,.T.);
#300=ORIENTED_EDGE('',*,*,#386,.T.);
#301=ORIENTED_EDGE('',*,*,#385,.F.);
#302=ORIENTED_EDGE('',*,*,#387,.T.);
#303=ORIENTED_EDGE('',*,*,#386,.F.);
#304=ORIENTED_EDGE('',*,*,#388,.T.);
#305=ORIENTED_EDGE('',*,*,#387,.F.);
#306=ORIENTED_EDGE('',*,*,#389,.T.);
#307=ORIENTED_EDGE('',*,*,#388,.F.);
#308=ORIENTED_EDGE('',*,*,#390,.T.);
#309=ORIENTED_EDGE('',*,*,#389,.F.);
#310=ORIENTED_EDGE('',*,*,#391,.T.);
#311=ORIENTED_EDGE('',*,*,#390,.F.);
#312=ORIENTED_EDGE('',*,*,#392,.T.);
#313=ORIENTED_EDGE('',*,*,#391,.F.);
#314=ORIENTED_EDGE('',*,*,#393,.T.);
#315=ORIENTED_EDGE('',*,*,#392,.F.);
#316=ORIENTED_EDGE('',*,*,#394,.T.);
#317=ORIENTED_EDGE('',*,*,#393,.F.);
#318=ORIENTED_EDGE('',*,*,#395,.T.);
#319=ORIENTED_EDGE('',*,*,#394,.F.);
#320=ORIENTED_EDGE('',*,*,#396,.T.);
#321=ORIENTED_EDGE('',*,*,#395,.F.);
#322=ORIENTED_EDGE('',*,*,#397,.T.);
#323=ORIENTED_EDGE('',*,*,#396,.F.);
#324=ORIENTED_EDGE('',*,*,#398,.T.);
#325=ORIENTED_EDGE('',*,*,#397,.F.);
#326=ORIENTED_EDGE('',*,*,#399,.T.);
#327=ORIENTED_EDGE('',*,*,#398,.F.);
#328=ORIENTED_EDGE('',*,*,#400,.T.);
#329=ORIENTED_EDGE('',*,*,#399,.F.);
#330=ORIENTED_EDGE('',*,*,#401,.T.);
#331=ORIENTED_EDGE('',*,*,#400,.F.);
#332=ORIENTED_EDGE('',*,*,#402,.T.);
#333=ORIENTED_EDGE('',*,*,#401,.F.);
#334=ORIENTED_EDGE('',*,*,#403,.T.);
#335=ORIENTED_EDGE('',*,*,#402,.F.);
#336=ORIENTED_EDGE('',*,*,#404,.T.);
#337=ORIENTED_EDGE('',*,*,#403,.F.);
#338=ORIENTED_EDGE('',*,*,#405,.T.);
#339=ORIENTED_EDGE('',*,*,#404,.F.);
#340=ORIENTED_EDGE('',*,*,#406,.T.);
#341=ORIENTED_EDGE('',*,*,#405,.F.);
#342=ORIENTED_EDGE('',*,*,#407,.T.);
#343=ORIENTED_EDGE('',*,*,#406,.F.);
#344=ORIENTED_EDGE('',*,*,#408,.T.);
#345=ORIENTED_EDGE('',*,*,#407,.F.);
#346=ORIENTED_EDGE('',*,*,#408,.F.);
#347=VERTEX_POINT('',#634);
#348=VERTEX_POINT('',#637);
#349=VERTEX_POINT('',#640);
#350=VERTEX_POINT('',#643);
#351=VERTEX_POINT('',#646);
#352=VERTEX_POINT('',#648);
#353=VERTEX_POINT('',#651);
#354=VERTEX_POINT('',#655);
#355=VERTEX_POINT('',#658);
#356=VERTEX_POINT('',#661);
#357=VERTEX_POINT('',#664);
#358=VERTEX_POINT('',#667);
#359=VERTEX_POINT('',#670);
#360=VERTEX_POINT('',#673);
#361=VERTEX_POINT('',#676);
#362=VERTEX_POINT('',#679);
#363=VERTEX_POINT('',#682);
#364=VERTEX_POINT('',#685);
#365=VERTEX_POINT('',#688);
#366=VERTEX_POINT('',#691);
#367=VERTEX_POINT('',#694);
#368=VERTEX_POINT('',#697);
#369=VERTEX_POINT('',#700);
#370=VERTEX_POINT('',#703);
#371=VERTEX_POINT('',#706);
#372=VERTEX_POINT('',#709);
#373=VERTEX_POINT('',#712);
#374=VERTEX_POINT('',#715);
#375=VERTEX_POINT('',#718);
#376=VERTEX_POINT('',#721);
#377=VERTEX_POINT('',#724);
#378=EDGE_CURVE('',#347,#347,#409,.T.);
#379=EDGE_CURVE('',#348,#348,#410,.T.);
#380=EDGE_CURVE('',#349,#349,#411,.T.);
#381=EDGE_CURVE('',#350,#350,#412,.T.);
#382=EDGE_CURVE('',#351,#351,#413,.T.);
#383=EDGE_CURVE('',#352,#352,#414,.T.);
#384=EDGE_CURVE('',#353,#353,#415,.T.);
#385=EDGE_CURVE('',#354,#354,#416,.T.);
#386=EDGE_CURVE('',#355,#355,#417,.T.);
#387=EDGE_CURVE('',#356,#356,#418,.T.);
#388=EDGE_CURVE('',#357,#357,#419,.T.);
#389=EDGE_CURVE('',#358,#358,#420,.T.);
#390=EDGE_CURVE('',#359,#359,#421,.T.);
#391=EDGE_CURVE('',#360,#360,#422,.T.);
#392=EDGE_CURVE('',#361,#361,#423,.T.);
#393=EDGE_CURVE('',#362,#362,#424,.T.);
#394=EDGE_CURVE('',#363,#363,#425,.T.);
#395=EDGE_CURVE('',#364,#364,#426,.T.);
#396=EDGE_CURVE('',#365,#365,#427,.T.);
#397=EDGE_CURVE('',#366,#366,#428,.T.);
#398=EDGE_CURVE('',#367,#367,#429,.T.);
#399=EDGE_CURVE('',#368,#368,#430,.T.);
#400=EDGE_CURVE('',#369,#369,#431,.T.);
#401=EDGE_CURVE('',#370,#370,#432,.T.);
#402=EDGE_CURVE('',#371,#371,#433,.T.);
#403=EDGE_CURVE('',#372,#372,#434,.T.);
#404=EDGE_CURVE('',#373,#373,#435,.T.);
#405=EDGE_CURVE('',#374,#374,#436,.T.);
#406=EDGE_CURVE('',#375,#375,#437,.T.);
#407=EDGE_CURVE('',#376,#376,#438,.T.);
#408=EDGE_CURVE('',#377,#377,#439,.T.);
#409=CIRCLE('',#441,0.517949192431114);
#410=CIRCLE('',#443,4.25);
#411=CIRCLE('',#445,4.25);
#412=CIRCLE('',#447,3.63642130996436);
#413=CIRCLE('',#449,4.60314763740251);
#414=CIRCLE('',#450,5.5);
#415=CIRCLE('',#452,4.20958890178084);
#416=CIRCLE('',#455,5.5);
#417=CIRCLE('',#457,5.7);
#418=CIRCLE('',#459,5.7);
#419=CIRCLE('',#461,6.2);
#420=CIRCLE('',#463,6.5);
#421=CIRCLE('',#465,6.5);
#422=CIRCLE('',#467,5.7);
#423=CIRCLE('',#469,5.7);
#424=CIRCLE('',#471,6.5);
#425=CIRCLE('',#473,6.5);
#426=CIRCLE('',#475,5.6286093236459);
#427=CIRCLE('',#477,5.);
#428=CIRCLE('',#479,5.);
#429=CIRCLE('',#481,4.90000000000001);
#430=CIRCLE('',#483,4.90000000000001);
#431=CIRCLE('',#485,5.00000000000001);
#432=CIRCLE('',#487,5.);
#433=CIRCLE('',#489,4.90000000000001);
#434=CIRCLE('',#491,4.90000000000001);
#435=CIRCLE('',#493,5.00000000000001);
#436=CIRCLE('',#495,5.);
#437=CIRCLE('',#497,5.25);
#438=CIRCLE('',#499,5.5);
#439=CIRCLE('',#501,5.5);
#440=AXIS2_PLACEMENT_3D('',#632,#504,#505);
#441=AXIS2_PLACEMENT_3D('',#633,#506,#507);
#442=AXIS2_PLACEMENT_3D('',#635,#508,#509);
#443=AXIS2_PLACEMENT_3D('',#636,#510,#511);
#444=AXIS2_PLACEMENT_3D('',#638,#512,#513);
#445=AXIS2_PLACEMENT_3D('',#639,#514,#515);
#446=AXIS2_PLACEMENT_3D('',#641,#516,#517);
#447=AXIS2_PLACEMENT_3D('',#642,#518,#519);
#448=AXIS2_PLACEMENT_3D('',#644,#520,#521);
#449=AXIS2_PLACEMENT_3D('',#645,#522,#523);
#450=AXIS2_PLACEMENT_3D('',#647,#524,#525);
#451=AXIS2_PLACEMENT_3D('',#649,#526,#527);
#452=AXIS2_PLACEMENT_3D('',#650,#528,#529);
#453=AXIS2_PLACEMENT_3D('',#652,#530,#531);
#454=AXIS2_PLACEMENT_3D('',#653,#532,#533);
#455=AXIS2_PLACEMENT_3D('',#654,#534,#535);
#456=AXIS2_PLACEMENT_3D('',#656,#536,#537);
#457=AXIS2_PLACEMENT_3D('',#657,#538,#539);
#458=AXIS2_PLACEMENT_3D('',#659,#540,#541);
#459=AXIS2_PLACEMENT_3D('',#660,#542,#543);
#460=AXIS2_PLACEMENT_3D('',#662,#544,#545);
#461=AXIS2_PLACEMENT_3D('',#663,#546,#547);
#462=AXIS2_PLACEMENT_3D('',#665,#548,#549);
#463=AXIS2_PLACEMENT_3D('',#666,#550,#551);
#464=AXIS2_PLACEMENT_3D('',#668,#552,#553);
#465=AXIS2_PLACEMENT_3D('',#669,#554,#555);
#466=AXIS2_PLACEMENT_3D('',#671,#556,#557);
#467=AXIS2_PLACEMENT_3D('',#672,#558,#559);
#468=AXIS2_PLACEMENT_3D('',#674,#560,#561);
#469=AXIS2_PLACEMENT_3D('',#675,#562,#563);
#470=AXIS2_PLACEMENT_3D('',#677,#564,#565);
#471=AXIS2_PLACEMENT_3D('',#678,#566,#567);
#472=AXIS2_PLACEMENT_3D('',#680,#568,#569);
#473=AXIS2_PLACEMENT_3D('',#681,#570,#571);
#474=AXIS2_PLACEMENT_3D('',#683,#572,#573);
#475=AXIS2_PLACEMENT_3D('',#684,#574,#575);
#476=AXIS2_PLACEMENT_3D('',#686,#576,#577);
#477=AXIS2_PLACEMENT_3D('',#687,#578,#579);
#478=AXIS2_PLACEMENT_3D('',#689,#580,#581);
#479=AXIS2_PLACEMENT_3D('',#690,#582,#583);
#480=AXIS2_PLACEMENT_3D('',#692,#584,#585);
#481=AXIS2_PLACEMENT_3D('',#693,#586,#587);
#482=AXIS2_PLACEMENT_3D('',#695,#588,#589);
#483=AXIS2_PLACEMENT_3D('',#696,#590,#591);
#484=AXIS2_PLACEMENT_3D('',#698,#592,#593);
#485=AXIS2_PLACEMENT_3D('',#699,#594,#595);
#486=AXIS2_PLACEMENT_3D('',#701,#596,#597);
#487=AXIS2_PLACEMENT_3D('',#702,#598,#599);
#488=AXIS2_PLACEMENT_3D('',#704,#600,#601);
#489=AXIS2_PLACEMENT_3D('',#705,#602,#603);
#490=AXIS2_PLACEMENT_3D('',#707,#604,#605);
#491=AXIS2_PLACEMENT_3D('',#708,#606,#607);
#492=AXIS2_PLACEMENT_3D('',#710,#608,#609);
#493=AXIS2_PLACEMENT_3D('',#711,#610,#611);
#494=AXIS2_PLACEMENT_3D('',#713,#612,#613);
#495=AXIS2_PLACEMENT_3D('',#714,#614,#615);
#496=AXIS2_PLACEMENT_3D('',#716,#616,#617);
#497=AXIS2_PLACEMENT_3D('',#717,#618,#619);
#498=AXIS2_PLACEMENT_3D('',#719,#620,#621);
#499=AXIS2_PLACEMENT_3D('',#720,#622,#623);
#500=AXIS2_PLACEMENT_3D('',#722,#624,#625);
#501=AXIS2_PLACEMENT_3D('',#723,#626,#627);
#502=AXIS2_PLACEMENT_3D('',#725,#628,#629);
#503=AXIS2_PLACEMENT_3D('',#726,#630,#631);
#504=DIRECTION('',(0.,0.,1.));
#505=DIRECTION('',(1.,0.,0.));
#506=DIRECTION('',(0.,0.,-1.));
#507=DIRECTION('',(-1.,0.,0.));
#508=DIRECTION('',(0.,0.,-1.));
#509=DIRECTION('',(-1.,0.,0.));
#510=DIRECTION('',(0.,0.,-1.));
#511=DIRECTION('',(-1.,0.,0.));
#512=DIRECTION('',(0.,0.,-1.));
#513=DIRECTION('',(-1.,0.,0.));
#514=DIRECTION('',(0.,0.,1.));
#515=DIRECTION('',(1.,0.,0.));
#516=DIRECTION('',(0.,0.,-1.));
#517=DIRECTION('',(-1.,0.,0.));
#518=DIRECTION('',(0.,0.,-1.));
#519=DIRECTION('',(-1.,0.,0.));
#520=DIRECTION('',(0.,0.,1.));
#521=DIRECTION('',(1.,0.,-1.49358355288806E-016));
#522=DIRECTION('',(0.,0.,-1.));
#523=DIRECTION('',(-1.,0.,0.));
#524=DIRECTION('',(0.,0.,-1.));
#525=DIRECTION('',(1.,0.,0.));
#526=DIRECTION('',(0.,0.,1.));
#527=DIRECTION('',(1.,0.,-7.45053097793077E-017));
#528=DIRECTION('',(0.,0.,-1.));
#529=DIRECTION('',(-1.,0.,0.));
#530=DIRECTION('',(0.,0.,-1.));
#531=DIRECTION('',(-1.,0.,-2.97153781558854E-016));
#532=DIRECTION('',(0.,0.,-1.));
#533=DIRECTION('',(-1.,0.,-1.35404240879347E-017));
#534=DIRECTION('',(0.,0.,-1.));
#535=DIRECTION('',(-1.,0.,0.));
#536=DIRECTION('',(0.,0.,-1.));
#537=DIRECTION('',(-1.,0.,0.));
#538=DIRECTION('',(0.,0.,-1.));
#539=DIRECTION('',(-1.,0.,0.));
#540=DIRECTION('',(0.,0.,1.));
#541=DIRECTION('',(1.,0.,0.));
#542=DIRECTION('',(0.,0.,-1.));
#543=DIRECTION('',(-1.,0.,0.));
#544=DIRECTION('',(0.,0.,-1.));
#545=DIRECTION('',(-1.,0.,0.));
#546=DIRECTION('',(0.,0.,-1.));
#547=DIRECTION('',(-1.,0.,0.));
#548=DIRECTION('',(0.,0.,-1.));
#549=DIRECTION('',(-1.,0.,0.));
#550=DIRECTION('',(0.,0.,-1.));
#551=DIRECTION('',(-1.,0.,0.));
#552=DIRECTION('',(0.,0.,-1.));
#553=DIRECTION('',(-1.,0.,0.));
#554=DIRECTION('',(0.,0.,-1.));
#555=DIRECTION('',(-1.,0.,0.));
#556=DIRECTION('',(0.,0.,-1.));
#557=DIRECTION('',(-1.,0.,0.));
#558=DIRECTION('',(0.,0.,-1.));
#559=DIRECTION('',(-1.,0.,0.));
#560=DIRECTION('',(0.,0.,1.));
#561=DIRECTION('',(1.,0.,0.));
#562=DIRECTION('',(0.,0.,-1.));
#563=DIRECTION('',(-1.,0.,0.));
#564=DIRECTION('',(0.,0.,-1.));
#565=DIRECTION('',(-1.,0.,0.));
#566=DIRECTION('',(0.,0.,-1.));
#567=DIRECTION('',(-1.,0.,0.));
#568=DIRECTION('',(0.,0.,1.));
#569=DIRECTION('',(1.,0.,6.89956637556649E-018));
#570=DIRECTION('',(0.,0.,-1.));
#571=DIRECTION('',(-1.,0.,0.));
#572=DIRECTION('',(0.,0.,-1.));
#573=DIRECTION('',(-1.,0.,0.));
#574=DIRECTION('',(0.,0.,-1.));
#575=DIRECTION('',(-1.,0.,0.));
#576=DIRECTION('',(0.,0.,-1.));
#577=DIRECTION('',(-1.,0.,-1.38417991300763E-017));
#578=DIRECTION('',(0.,0.,-1.));
#579=DIRECTION('',(-1.,0.,0.));
#580=DIRECTION('',(0.,0.,-1.));
#581=DIRECTION('',(-1.,0.,0.));
#582=DIRECTION('',(0.,0.,-1.));
#583=DIRECTION('',(-1.,0.,0.));
#584=DIRECTION('',(0.,0.,-1.));
#585=DIRECTION('',(-1.,0.,0.));
#586=DIRECTION('',(0.,0.,-1.));
#587=DIRECTION('',(-1.,0.,0.));
#588=DIRECTION('',(0.,0.,-1.));
#589=DIRECTION('',(-1.,0.,2.7617488174753E-017));
#590=DIRECTION('',(0.,0.,-1.));
#591=DIRECTION('',(-1.,0.,0.));
#592=DIRECTION('',(0.,0.,-1.));
#593=DIRECTION('',(-1.,0.,0.));
#594=DIRECTION('',(0.,0.,-1.));
#595=DIRECTION('',(-1.,0.,0.));
#596=DIRECTION('',(0.,0.,1.));
#597=DIRECTION('',(1.,0.,-1.0012335715659E-016));
#598=DIRECTION('',(0.,0.,-1.));
#599=DIRECTION('',(-1.,0.,0.));
#600=DIRECTION('',(0.,0.,-1.));
#601=DIRECTION('',(-1.,0.,0.));
#602=DIRECTION('',(0.,0.,-1.));
#603=DIRECTION('',(-1.,0.,0.));
#604=DIRECTION('',(0.,0.,-1.));
#605=DIRECTION('',(-1.,0.,3.79740462402893E-017));
#606=DIRECTION('',(0.,0.,-1.));
#607=DIRECTION('',(-1.,0.,0.));
#608=DIRECTION('',(0.,0.,-1.));
#609=DIRECTION('',(-1.,0.,0.));
#610=DIRECTION('',(0.,0.,-1.));
#611=DIRECTION('',(-1.,0.,0.));
#612=DIRECTION('',(0.,0.,1.));
#613=DIRECTION('',(1.,0.,1.03575886713714E-017));
#614=DIRECTION('',(0.,0.,-1.));
#615=DIRECTION('',(-1.,0.,0.));
#616=DIRECTION('',(0.,0.,-1.));
#617=DIRECTION('',(-1.,0.,0.));
#618=DIRECTION('',(0.,0.,-1.));
#619=DIRECTION('',(-1.,0.,0.));
#620=DIRECTION('',(0.,0.,-1.));
#621=DIRECTION('',(-1.,0.,0.));
#622=DIRECTION('',(0.,0.,-1.));
#623=DIRECTION('',(-1.,0.,0.));
#624=DIRECTION('',(0.,0.,1.));
#625=DIRECTION('',(1.,0.,-2.99554942083572E-017));
#626=DIRECTION('',(0.,0.,-1.));
#627=DIRECTION('',(-1.,0.,0.));
#628=DIRECTION('',(0.,0.,-1.));
#629=DIRECTION('',(-1.,0.,0.));
#630=DIRECTION('',(0.,0.,1.));
#631=DIRECTION('',(1.,0.,0.));
#632=CARTESIAN_POINT('',(0.,0.,0.));
#633=CARTESIAN_POINT('',(0.,0.,0.));
#634=CARTESIAN_POINT('',(-0.517949192431114,0.,0.));
#635=CARTESIAN_POINT('',(0.,0.,0.));
#636=CARTESIAN_POINT('',(0.,0.,-1.));
#637=CARTESIAN_POINT('',(-4.25,0.,-1.));
#638=CARTESIAN_POINT('',(0.,0.,0.));
#639=CARTESIAN_POINT('',(0.,0.,-9.95047016064417));
#640=CARTESIAN_POINT('',(4.25,0.,-9.95047016064417));
#641=CARTESIAN_POINT('',(0.,0.,0.));
#642=CARTESIAN_POINT('',(0.,0.,-13.3280430006014));
#643=CARTESIAN_POINT('',(-3.63642130996436,0.,-13.3280430006014));
#644=CARTESIAN_POINT('',(0.,0.,-10.3936863277902));
#645=CARTESIAN_POINT('',(0.,0.,-15.));
#646=CARTESIAN_POINT('',(-4.60314763740251,0.,-15.));
#647=CARTESIAN_POINT('',(0.,0.,-10.0630877008052));
#648=CARTESIAN_POINT('',(5.5,0.,-10.0630877008052));
#649=CARTESIAN_POINT('',(0.,0.,-15.));
#650=CARTESIAN_POINT('',(0.,0.,-14.9285050937768));
#651=CARTESIAN_POINT('',(-4.20958890178084,0.,-14.9285050937768));
#652=CARTESIAN_POINT('',(0.,0.,-13.832563618699));
#653=CARTESIAN_POINT('',(0.,0.,-14.9285050937768));
#654=CARTESIAN_POINT('',(0.,0.,0.));
#655=CARTESIAN_POINT('',(-5.5,0.,0.));
#656=CARTESIAN_POINT('',(0.,0.,0.));
#657=CARTESIAN_POINT('',(0.,0.,0.746410161513775));
#658=CARTESIAN_POINT('',(-5.7,0.,0.746410161513775));
#659=CARTESIAN_POINT('',(0.,0.,0.));
#660=CARTESIAN_POINT('',(0.,0.,5.));
#661=CARTESIAN_POINT('',(-5.7,0.,5.));
#662=CARTESIAN_POINT('',(0.,0.,0.));
#663=CARTESIAN_POINT('',(0.,0.,5.));
#664=CARTESIAN_POINT('',(-6.2,0.,5.));
#665=CARTESIAN_POINT('',(5.7,0.,5.));
#666=CARTESIAN_POINT('',(0.,0.,5.3));
#667=CARTESIAN_POINT('',(-6.5,0.,5.3));
#668=CARTESIAN_POINT('',(0.,0.,5.3));
#669=CARTESIAN_POINT('',(0.,0.,5.8));
#670=CARTESIAN_POINT('',(-6.5,0.,5.8));
#671=CARTESIAN_POINT('',(0.,0.,0.));
#672=CARTESIAN_POINT('',(0.,0.,5.8));
#673=CARTESIAN_POINT('',(-5.7,0.,5.8));
#674=CARTESIAN_POINT('',(6.5,0.,5.8));
#675=CARTESIAN_POINT('',(0.,0.,8.));
#676=CARTESIAN_POINT('',(-5.7,0.,8.));
#677=CARTESIAN_POINT('',(0.,0.,0.));
#678=CARTESIAN_POINT('',(0.,0.,8.8));
#679=CARTESIAN_POINT('',(-6.5,0.,8.8));
#680=CARTESIAN_POINT('',(0.,0.,8.));
#681=CARTESIAN_POINT('',(0.,0.,9.4));
#682=CARTESIAN_POINT('',(-6.5,0.,9.4));
#683=CARTESIAN_POINT('',(0.,0.,0.));
#684=CARTESIAN_POINT('',(0.,0.,9.74855627054164));
#685=CARTESIAN_POINT('',(-5.6286093236459,0.,9.74855627054164));
#686=CARTESIAN_POINT('',(0.,0.,9.4));
#687=CARTESIAN_POINT('',(0.,0.,10.6770329614269));
#688=CARTESIAN_POINT('',(-5.,0.,10.6770329614269));
#689=CARTESIAN_POINT('',(0.,0.,10.6770329614269));
#690=CARTESIAN_POINT('',(0.,0.,24.8));
#691=CARTESIAN_POINT('',(-5.,0.,24.8));
#692=CARTESIAN_POINT('',(0.,0.,0.));
#693=CARTESIAN_POINT('',(0.,0.,24.9));
#694=CARTESIAN_POINT('',(-4.90000000000001,0.,24.9));
#695=CARTESIAN_POINT('',(0.,0.,24.8));
#696=CARTESIAN_POINT('',(0.,0.,25.1));
#697=CARTESIAN_POINT('',(-4.90000000000001,0.,25.1));
#698=CARTESIAN_POINT('',(0.,0.,0.));
#699=CARTESIAN_POINT('',(0.,0.,25.2));
#700=CARTESIAN_POINT('',(-5.00000000000001,0.,25.2));
#701=CARTESIAN_POINT('',(0.,0.,25.1));
#702=CARTESIAN_POINT('',(0.,0.,25.8));
#703=CARTESIAN_POINT('',(-5.,0.,25.8));
#704=CARTESIAN_POINT('',(0.,0.,0.));
#705=CARTESIAN_POINT('',(0.,0.,25.9));
#706=CARTESIAN_POINT('',(-4.90000000000001,0.,25.9));
#707=CARTESIAN_POINT('',(0.,0.,25.8));
#708=CARTESIAN_POINT('',(0.,0.,26.1));
#709=CARTESIAN_POINT('',(-4.90000000000001,0.,26.1));
#710=CARTESIAN_POINT('',(0.,0.,0.));
#711=CARTESIAN_POINT('',(0.,0.,26.2));
#712=CARTESIAN_POINT('',(-5.00000000000001,0.,26.2));
#713=CARTESIAN_POINT('',(0.,0.,26.1));
#714=CARTESIAN_POINT('',(0.,0.,26.4226497308104));
#715=CARTESIAN_POINT('',(-5.,0.,26.4226497308104));
#716=CARTESIAN_POINT('',(0.,0.,0.));
#717=CARTESIAN_POINT('',(0.,0.,26.8556624327026));
#718=CARTESIAN_POINT('',(-5.25,0.,26.8556624327026));
#719=CARTESIAN_POINT('',(0.,0.,26.4226497308104));
#720=CARTESIAN_POINT('',(0.,0.,27.));
#721=CARTESIAN_POINT('',(-5.5,0.,27.));
#722=CARTESIAN_POINT('',(0.,0.,26.8556624327026));
#723=CARTESIAN_POINT('',(0.,0.,28.));
#724=CARTESIAN_POINT('',(-5.5,0.,28.));
#725=CARTESIAN_POINT('',(0.,0.,0.));
#726=CARTESIAN_POINT('',(5.5,0.,28.));
#727=(
GEOMETRIC_REPRESENTATION_CONTEXT(3)
GLOBAL_UNCERTAINTY_ASSIGNED_CONTEXT((#728))
GLOBAL_UNIT_ASSIGNED_CONTEXT((#734,#730,#729))
REPRESENTATION_CONTEXT('N_02_080_0005_X__3D_Modell',
'TOP_LEVEL_ASSEMBLY_PART')
);
#728=UNCERTAINTY_MEASURE_WITH_UNIT(LENGTH_MEASURE(2.E-005),#734,
'DISTANCE_ACCURACY_VALUE','Maximum Tolerance applied to model');
#729=(
NAMED_UNIT(*)
SI_UNIT($,.STERADIAN.)
SOLID_ANGLE_UNIT()
);
#730=(
CONVERSION_BASED_UNIT('DEGREE',#732)
NAMED_UNIT(#731)
PLANE_ANGLE_UNIT()
);
#731=DIMENSIONAL_EXPONENTS(0.,0.,0.,0.,0.,0.,0.);
#732=PLANE_ANGLE_MEASURE_WITH_UNIT(PLANE_ANGLE_MEASURE(0.0174532925),#733);
#733=(
NAMED_UNIT(*)
PLANE_ANGLE_UNIT()
SI_UNIT($,.RADIAN.)
);
#734=(
LENGTH_UNIT()
NAMED_UNIT(*)
SI_UNIT(.MILLI.,.METRE.)
);
ENDSEC;
END-ISO-10303-21;
