ISO-10303-21;
HEADER;
/* Generated by software containing ST-Developer
 * from STEP Tools, Inc. (www.steptools.com) 
 */
/* OPTION: using custom schema-name function */

FILE_DESCRIPTION(
/* description */ (''),
/* implementation_level */ '2;1');

FILE_NAME(
/* name */ '',
/* time_stamp */ '2015-06-01T08:11:32+02:00',
/* author */ (''),
/* organization */ (''),
/* preprocessor_version */ 'ST-DEVELOPER v11',
/* originating_system */ 'SIEMENS PLM Software NX 7.5',
/* authorisation */ '');

FILE_SCHEMA (('CONFIG_CONTROL_DESIGN'));
ENDSEC;

DATA;
#10=SHAPE_REPRESENTATION_RELATIONSHIP('None',
'relationship between N 01 080 0003 (1)_02-None and N 01 080 0003 (1)_0
2-None',#94,#11);
#11=ADVANCED_BREP_SHAPE_REPRESENTATION('N 01 080 0003 (1)_02-None',(#95),
#531);
#12=CC_DESIGN_APPROVAL(#24,(#82));
#13=CC_DESIGN_APPROVAL(#25,(#84));
#14=CC_DESIGN_APPROVAL(#26,(#31));
#15=APPROVAL_PERSON_ORGANIZATION(#69,#24,#18);
#16=APPROVAL_PERSON_ORGANIZATION(#70,#25,#19);
#17=APPROVAL_PERSON_ORGANIZATION(#71,#26,#20);
#18=APPROVAL_ROLE('approver');
#19=APPROVAL_ROLE('approver');
#20=APPROVAL_ROLE('approver');
#21=APPROVAL_DATE_TIME(#39,#24);
#22=APPROVAL_DATE_TIME(#40,#25);
#23=APPROVAL_DATE_TIME(#41,#26);
#24=APPROVAL(#27,' ');
#25=APPROVAL(#28,' ');
#26=APPROVAL(#29,' ');
#27=APPROVAL_STATUS('not_yet_approved');
#28=APPROVAL_STATUS('not_yet_approved');
#29=APPROVAL_STATUS('not_yet_approved');
#30=CC_DESIGN_SECURITY_CLASSIFICATION(#31,(#84));
#31=SECURITY_CLASSIFICATION(' ',' ',#32);
#32=SECURITY_CLASSIFICATION_LEVEL('confidential');
#33=CC_DESIGN_DATE_AND_TIME_ASSIGNMENT(#37,#35,(#82));
#34=CC_DESIGN_DATE_AND_TIME_ASSIGNMENT(#38,#36,(#31));
#35=DATE_TIME_ROLE('creation_date');
#36=DATE_TIME_ROLE('classification_date');
#37=DATE_AND_TIME(#52,#42);
#38=DATE_AND_TIME(#53,#43);
#39=DATE_AND_TIME(#54,#44);
#40=DATE_AND_TIME(#55,#45);
#41=DATE_AND_TIME(#56,#46);
#42=LOCAL_TIME(0,0,0.,#47);
#43=LOCAL_TIME(0,0,0.,#48);
#44=LOCAL_TIME(0,0,0.,#49);
#45=LOCAL_TIME(0,0,0.,#50);
#46=LOCAL_TIME(0,0,0.,#51);
#47=COORDINATED_UNIVERSAL_TIME_OFFSET(0,0,.BEHIND.);
#48=COORDINATED_UNIVERSAL_TIME_OFFSET(0,0,.BEHIND.);
#49=COORDINATED_UNIVERSAL_TIME_OFFSET(0,0,.BEHIND.);
#50=COORDINATED_UNIVERSAL_TIME_OFFSET(0,0,.BEHIND.);
#51=COORDINATED_UNIVERSAL_TIME_OFFSET(0,0,.BEHIND.);
#52=CALENDAR_DATE(0,1,1);
#53=CALENDAR_DATE(0,1,1);
#54=CALENDAR_DATE(0,1,1);
#55=CALENDAR_DATE(0,1,1);
#56=CALENDAR_DATE(0,1,1);
#57=CC_DESIGN_PERSON_AND_ORGANIZATION_ASSIGNMENT(#65,#61,(#82,#84));
#58=CC_DESIGN_PERSON_AND_ORGANIZATION_ASSIGNMENT(#66,#62,(#86));
#59=CC_DESIGN_PERSON_AND_ORGANIZATION_ASSIGNMENT(#67,#63,(#84));
#60=CC_DESIGN_PERSON_AND_ORGANIZATION_ASSIGNMENT(#68,#64,(#31));
#61=PERSON_AND_ORGANIZATION_ROLE('creator');
#62=PERSON_AND_ORGANIZATION_ROLE('design_owner');
#63=PERSON_AND_ORGANIZATION_ROLE('design_supplier');
#64=PERSON_AND_ORGANIZATION_ROLE('classification_officer');
#65=PERSON_AND_ORGANIZATION(#79,#72);
#66=PERSON_AND_ORGANIZATION(#79,#73);
#67=PERSON_AND_ORGANIZATION(#79,#74);
#68=PERSON_AND_ORGANIZATION(#79,#75);
#69=PERSON_AND_ORGANIZATION(#79,#76);
#70=PERSON_AND_ORGANIZATION(#79,#77);
#71=PERSON_AND_ORGANIZATION(#79,#78);
#72=ORGANIZATION(' ',' ',' ');
#73=ORGANIZATION(' ',' ',' ');
#74=ORGANIZATION(' ',' ',' ');
#75=ORGANIZATION(' ',' ',' ');
#76=ORGANIZATION(' ',' ',' ');
#77=ORGANIZATION(' ',' ',' ');
#78=ORGANIZATION(' ',' ',' ');
#79=PERSON(' ',' ',' ',(' '),$,$);
#80=SHAPE_DEFINITION_REPRESENTATION(#81,#94);
#81=PRODUCT_DEFINITION_SHAPE('','',#82);
#82=PRODUCT_DEFINITION(' ','',#84,#83);
#83=DESIGN_CONTEXT('',#93,'design');
#84=PRODUCT_DEFINITION_FORMATION_WITH_SPECIFIED_SOURCE(' ',' ',#86,.NOT_KNOWN.);
#85=PRODUCT_RELATED_PRODUCT_CATEGORY('detail','',(#86));
#86=PRODUCT('N 01 080 0003 (1)_02','N 01 080 0003 (1)_02',' ',(#91));
#87=PRODUCT_CATEGORY_RELATIONSHIP(' ',' ',#89,#90);
#88=PRODUCT_CATEGORY_RELATIONSHIP('','',#90,#85);
#89=PRODUCT_CATEGORY('part',' ');
#90=PRODUCT_CATEGORY(' ','');
#91=MECHANICAL_CONTEXT(' ',#93,'mechanical');
#92=APPLICATION_PROTOCOL_DEFINITION('international standard',
'config_control_design',1994,#93);
#93=APPLICATION_CONTEXT(
'configuration controlled 3D designs of mechanical parts and assemblies');
#94=SHAPE_REPRESENTATION('N 01 080 0003 (1)_02-None',(#319),#531);
#95=MANIFOLD_SOLID_BREP('',#96);
#96=CLOSED_SHELL('',(#151,#152,#153,#154,#155,#156,#157,#158,#159,#160,#161,
#162,#163,#164,#165,#166,#167,#168,#169,#170,#171));
#97=TOROIDAL_SURFACE('',#336,6.2,0.3);
#98=TOROIDAL_SURFACE('',#350,3.95,1.);
#99=TOROIDAL_SURFACE('',#354,3.45,0.500000000000001);
#100=CONICAL_SURFACE('',#326,4.,45.);
#101=CONICAL_SURFACE('',#330,5.5,15.);
#102=CONICAL_SURFACE('',#344,5.69999999999999,45.0000000000001);
#103=CONICAL_SURFACE('',#348,6.5,80.4068657372698);
#104=CONICAL_SURFACE('',#356,3.2,60.0000000000003);
#105=CYLINDRICAL_SURFACE('',#324,4.);
#106=CYLINDRICAL_SURFACE('',#332,5.7);
#107=CYLINDRICAL_SURFACE('',#338,6.5);
#108=CYLINDRICAL_SURFACE('',#342,5.69999999999999);
#109=CYLINDRICAL_SURFACE('',#346,6.5);
#110=CYLINDRICAL_SURFACE('',#352,2.95);
#111=CYLINDRICAL_SURFACE('',#358,3.45);
#112=(
BOUNDED_SURFACE()
B_SPLINE_SURFACE(3,3,((#448,#449,#450,#451,#452,#453,#454),(#455,#456,#457,
#458,#459,#460,#461),(#462,#463,#464,#465,#466,#467,#468),(#469,#470,#471,
#472,#473,#474,#475)),.UNSPECIFIED.,.F.,.T.,.F.)
B_SPLINE_SURFACE_WITH_KNOTS((4,4),(1,3,3,3,1),(0.,1.),(-0.5,0.,0.5,1.,1.5),
 .UNSPECIFIED.)
GEOMETRIC_REPRESENTATION_ITEM()
RATIONAL_B_SPLINE_SURFACE(((1.,0.333333333333333,0.333333333333333,1.,0.333333333333333,
0.333333333333333,1.),(0.929618127333277,0.309872709111092,0.309872709111092,
0.929618127333277,0.309872709111092,0.309872709111092,0.929618127333277),
(0.929618127333277,0.309872709111092,0.309872709111092,0.929618127333277,
0.309872709111092,0.309872709111092,0.929618127333277),(1.,0.333333333333333,
0.333333333333333,1.,0.333333333333333,0.333333333333333,1.)))
REPRESENTATION_ITEM('')
SURFACE()
);
#113=FACE_BOUND('',#180,.T.);
#114=FACE_BOUND('',#181,.T.);
#115=FACE_BOUND('',#182,.T.);
#116=FACE_BOUND('',#183,.T.);
#117=FACE_BOUND('',#184,.T.);
#118=FACE_BOUND('',#185,.T.);
#119=FACE_BOUND('',#186,.T.);
#120=FACE_BOUND('',#187,.T.);
#121=FACE_BOUND('',#188,.T.);
#122=FACE_BOUND('',#189,.T.);
#123=FACE_BOUND('',#190,.T.);
#124=FACE_BOUND('',#191,.T.);
#125=FACE_BOUND('',#192,.T.);
#126=FACE_BOUND('',#193,.T.);
#127=FACE_BOUND('',#194,.T.);
#128=FACE_BOUND('',#195,.T.);
#129=FACE_BOUND('',#196,.T.);
#130=FACE_BOUND('',#197,.T.);
#131=FACE_BOUND('',#198,.T.);
#132=FACE_BOUND('',#199,.T.);
#133=FACE_BOUND('',#200,.T.);
#134=FACE_BOUND('',#201,.T.);
#135=FACE_BOUND('',#202,.T.);
#136=FACE_BOUND('',#203,.T.);
#137=FACE_BOUND('',#204,.T.);
#138=FACE_BOUND('',#205,.T.);
#139=FACE_BOUND('',#206,.T.);
#140=FACE_BOUND('',#207,.T.);
#141=FACE_BOUND('',#208,.T.);
#142=FACE_BOUND('',#209,.T.);
#143=FACE_BOUND('',#210,.T.);
#144=FACE_BOUND('',#211,.T.);
#145=FACE_BOUND('',#212,.T.);
#146=FACE_BOUND('',#213,.T.);
#147=FACE_BOUND('',#214,.T.);
#148=FACE_BOUND('',#215,.T.);
#149=FACE_BOUND('',#216,.T.);
#150=FACE_BOUND('',#217,.T.);
#151=ADVANCED_FACE('',(#177),#172,.T.);
#152=ADVANCED_FACE('',(#113,#114),#112,.T.);
#153=ADVANCED_FACE('',(#115,#116),#105,.T.);
#154=ADVANCED_FACE('',(#117,#118),#100,.T.);
#155=ADVANCED_FACE('',(#119,#120),#173,.T.);
#156=ADVANCED_FACE('',(#121,#122),#101,.T.);
#157=ADVANCED_FACE('',(#123,#124),#106,.T.);
#158=ADVANCED_FACE('',(#125,#126),#174,.T.);
#159=ADVANCED_FACE('',(#127,#128),#97,.T.);
#160=ADVANCED_FACE('',(#129,#130),#107,.T.);
#161=ADVANCED_FACE('',(#131,#132),#175,.T.);
#162=ADVANCED_FACE('',(#133,#134),#108,.T.);
#163=ADVANCED_FACE('',(#135,#136),#102,.T.);
#164=ADVANCED_FACE('',(#137,#138),#109,.T.);
#165=ADVANCED_FACE('',(#139,#140),#103,.T.);
#166=ADVANCED_FACE('',(#141,#142),#98,.F.);
#167=ADVANCED_FACE('',(#143,#144),#110,.T.);
#168=ADVANCED_FACE('',(#145,#146),#99,.F.);
#169=ADVANCED_FACE('',(#147,#148),#104,.T.);
#170=ADVANCED_FACE('',(#149,#150),#111,.T.);
#171=ADVANCED_FACE('',(#178),#176,.T.);
#172=PLANE('',#321);
#173=PLANE('',#328);
#174=PLANE('',#334);
#175=PLANE('',#340);
#176=PLANE('',#359);
#177=FACE_OUTER_BOUND('',#179,.T.);
#178=FACE_OUTER_BOUND('',#218,.T.);
#179=EDGE_LOOP('',(#219));
#180=EDGE_LOOP('',(#220));
#181=EDGE_LOOP('',(#221));
#182=EDGE_LOOP('',(#222));
#183=EDGE_LOOP('',(#223));
#184=EDGE_LOOP('',(#224));
#185=EDGE_LOOP('',(#225));
#186=EDGE_LOOP('',(#226));
#187=EDGE_LOOP('',(#227));
#188=EDGE_LOOP('',(#228));
#189=EDGE_LOOP('',(#229));
#190=EDGE_LOOP('',(#230));
#191=EDGE_LOOP('',(#231));
#192=EDGE_LOOP('',(#232));
#193=EDGE_LOOP('',(#233));
#194=EDGE_LOOP('',(#234));
#195=EDGE_LOOP('',(#235));
#196=EDGE_LOOP('',(#236));
#197=EDGE_LOOP('',(#237));
#198=EDGE_LOOP('',(#238));
#199=EDGE_LOOP('',(#239));
#200=EDGE_LOOP('',(#240));
#201=EDGE_LOOP('',(#241));
#202=EDGE_LOOP('',(#242));
#203=EDGE_LOOP('',(#243));
#204=EDGE_LOOP('',(#244));
#205=EDGE_LOOP('',(#245));
#206=EDGE_LOOP('',(#246));
#207=EDGE_LOOP('',(#247));
#208=EDGE_LOOP('',(#248));
#209=EDGE_LOOP('',(#249));
#210=EDGE_LOOP('',(#250));
#211=EDGE_LOOP('',(#251));
#212=EDGE_LOOP('',(#252));
#213=EDGE_LOOP('',(#253));
#214=EDGE_LOOP('',(#254));
#215=EDGE_LOOP('',(#255));
#216=EDGE_LOOP('',(#256));
#217=EDGE_LOOP('',(#257));
#218=EDGE_LOOP('',(#258));
#219=ORIENTED_EDGE('',*,*,#279,.T.);
#220=ORIENTED_EDGE('',*,*,#280,.T.);
#221=ORIENTED_EDGE('',*,*,#279,.F.);
#222=ORIENTED_EDGE('',*,*,#281,.T.);
#223=ORIENTED_EDGE('',*,*,#280,.F.);
#224=ORIENTED_EDGE('',*,*,#282,.T.);
#225=ORIENTED_EDGE('',*,*,#281,.F.);
#226=ORIENTED_EDGE('',*,*,#283,.T.);
#227=ORIENTED_EDGE('',*,*,#282,.F.);
#228=ORIENTED_EDGE('',*,*,#284,.T.);
#229=ORIENTED_EDGE('',*,*,#283,.F.);
#230=ORIENTED_EDGE('',*,*,#285,.T.);
#231=ORIENTED_EDGE('',*,*,#284,.F.);
#232=ORIENTED_EDGE('',*,*,#286,.T.);
#233=ORIENTED_EDGE('',*,*,#285,.F.);
#234=ORIENTED_EDGE('',*,*,#287,.T.);
#235=ORIENTED_EDGE('',*,*,#286,.F.);
#236=ORIENTED_EDGE('',*,*,#288,.T.);
#237=ORIENTED_EDGE('',*,*,#287,.F.);
#238=ORIENTED_EDGE('',*,*,#289,.T.);
#239=ORIENTED_EDGE('',*,*,#288,.F.);
#240=ORIENTED_EDGE('',*,*,#290,.T.);
#241=ORIENTED_EDGE('',*,*,#289,.F.);
#242=ORIENTED_EDGE('',*,*,#291,.T.);
#243=ORIENTED_EDGE('',*,*,#290,.F.);
#244=ORIENTED_EDGE('',*,*,#292,.T.);
#245=ORIENTED_EDGE('',*,*,#291,.F.);
#246=ORIENTED_EDGE('',*,*,#293,.T.);
#247=ORIENTED_EDGE('',*,*,#292,.F.);
#248=ORIENTED_EDGE('',*,*,#294,.T.);
#249=ORIENTED_EDGE('',*,*,#293,.F.);
#250=ORIENTED_EDGE('',*,*,#295,.T.);
#251=ORIENTED_EDGE('',*,*,#294,.F.);
#252=ORIENTED_EDGE('',*,*,#296,.T.);
#253=ORIENTED_EDGE('',*,*,#295,.F.);
#254=ORIENTED_EDGE('',*,*,#297,.T.);
#255=ORIENTED_EDGE('',*,*,#296,.F.);
#256=ORIENTED_EDGE('',*,*,#298,.T.);
#257=ORIENTED_EDGE('',*,*,#297,.F.);
#258=ORIENTED_EDGE('',*,*,#298,.F.);
#259=VERTEX_POINT('',#444);
#260=VERTEX_POINT('',#447);
#261=VERTEX_POINT('',#477);
#262=VERTEX_POINT('',#480);
#263=VERTEX_POINT('',#483);
#264=VERTEX_POINT('',#486);
#265=VERTEX_POINT('',#489);
#266=VERTEX_POINT('',#492);
#267=VERTEX_POINT('',#495);
#268=VERTEX_POINT('',#498);
#269=VERTEX_POINT('',#501);
#270=VERTEX_POINT('',#504);
#271=VERTEX_POINT('',#507);
#272=VERTEX_POINT('',#510);
#273=VERTEX_POINT('',#513);
#274=VERTEX_POINT('',#516);
#275=VERTEX_POINT('',#519);
#276=VERTEX_POINT('',#522);
#277=VERTEX_POINT('',#525);
#278=VERTEX_POINT('',#528);
#279=EDGE_CURVE('',#259,#259,#299,.T.);
#280=EDGE_CURVE('',#260,#260,#300,.T.);
#281=EDGE_CURVE('',#261,#261,#301,.T.);
#282=EDGE_CURVE('',#262,#262,#302,.T.);
#283=EDGE_CURVE('',#263,#263,#303,.T.);
#284=EDGE_CURVE('',#264,#264,#304,.T.);
#285=EDGE_CURVE('',#265,#265,#305,.T.);
#286=EDGE_CURVE('',#266,#266,#306,.T.);
#287=EDGE_CURVE('',#267,#267,#307,.T.);
#288=EDGE_CURVE('',#268,#268,#308,.T.);
#289=EDGE_CURVE('',#269,#269,#309,.T.);
#290=EDGE_CURVE('',#270,#270,#310,.T.);
#291=EDGE_CURVE('',#271,#271,#311,.T.);
#292=EDGE_CURVE('',#272,#272,#312,.T.);
#293=EDGE_CURVE('',#273,#273,#313,.T.);
#294=EDGE_CURVE('',#274,#274,#314,.T.);
#295=EDGE_CURVE('',#275,#275,#315,.T.);
#296=EDGE_CURVE('',#276,#276,#316,.T.);
#297=EDGE_CURVE('',#277,#277,#317,.T.);
#298=EDGE_CURVE('',#278,#278,#318,.T.);
#299=CIRCLE('',#320,3.);
#300=CIRCLE('',#322,4.);
#301=CIRCLE('',#323,4.);
#302=CIRCLE('',#325,4.5);
#303=CIRCLE('',#327,5.5);
#304=CIRCLE('',#329,5.7);
#305=CIRCLE('',#331,5.7);
#306=CIRCLE('',#333,6.2);
#307=CIRCLE('',#335,6.5);
#308=CIRCLE('',#337,6.5);
#309=CIRCLE('',#339,5.69999999999999);
#310=CIRCLE('',#341,5.69999999999999);
#311=CIRCLE('',#343,6.5);
#312=CIRCLE('',#345,6.5);
#313=CIRCLE('',#347,3.78334940611091);
#314=CIRCLE('',#349,2.95);
#315=CIRCLE('',#351,2.95);
#316=CIRCLE('',#353,3.2);
#317=CIRCLE('',#355,3.45);
#318=CIRCLE('',#357,3.45);
#319=AXIS2_PLACEMENT_3D('',#442,#360,#361);
#320=AXIS2_PLACEMENT_3D('',#443,#362,#363);
#321=AXIS2_PLACEMENT_3D('',#445,#364,#365);
#322=AXIS2_PLACEMENT_3D('',#446,#366,#367);
#323=AXIS2_PLACEMENT_3D('',#476,#368,#369);
#324=AXIS2_PLACEMENT_3D('',#478,#370,#371);
#325=AXIS2_PLACEMENT_3D('',#479,#372,#373);
#326=AXIS2_PLACEMENT_3D('',#481,#374,#375);
#327=AXIS2_PLACEMENT_3D('',#482,#376,#377);
#328=AXIS2_PLACEMENT_3D('',#484,#378,#379);
#329=AXIS2_PLACEMENT_3D('',#485,#380,#381);
#330=AXIS2_PLACEMENT_3D('',#487,#382,#383);
#331=AXIS2_PLACEMENT_3D('',#488,#384,#385);
#332=AXIS2_PLACEMENT_3D('',#490,#386,#387);
#333=AXIS2_PLACEMENT_3D('',#491,#388,#389);
#334=AXIS2_PLACEMENT_3D('',#493,#390,#391);
#335=AXIS2_PLACEMENT_3D('',#494,#392,#393);
#336=AXIS2_PLACEMENT_3D('',#496,#394,#395);
#337=AXIS2_PLACEMENT_3D('',#497,#396,#397);
#338=AXIS2_PLACEMENT_3D('',#499,#398,#399);
#339=AXIS2_PLACEMENT_3D('',#500,#400,#401);
#340=AXIS2_PLACEMENT_3D('',#502,#402,#403);
#341=AXIS2_PLACEMENT_3D('',#503,#404,#405);
#342=AXIS2_PLACEMENT_3D('',#505,#406,#407);
#343=AXIS2_PLACEMENT_3D('',#506,#408,#409);
#344=AXIS2_PLACEMENT_3D('',#508,#410,#411);
#345=AXIS2_PLACEMENT_3D('',#509,#412,#413);
#346=AXIS2_PLACEMENT_3D('',#511,#414,#415);
#347=AXIS2_PLACEMENT_3D('',#512,#416,#417);
#348=AXIS2_PLACEMENT_3D('',#514,#418,#419);
#349=AXIS2_PLACEMENT_3D('',#515,#420,#421);
#350=AXIS2_PLACEMENT_3D('',#517,#422,#423);
#351=AXIS2_PLACEMENT_3D('',#518,#424,#425);
#352=AXIS2_PLACEMENT_3D('',#520,#426,#427);
#353=AXIS2_PLACEMENT_3D('',#521,#428,#429);
#354=AXIS2_PLACEMENT_3D('',#523,#430,#431);
#355=AXIS2_PLACEMENT_3D('',#524,#432,#433);
#356=AXIS2_PLACEMENT_3D('',#526,#434,#435);
#357=AXIS2_PLACEMENT_3D('',#527,#436,#437);
#358=AXIS2_PLACEMENT_3D('',#529,#438,#439);
#359=AXIS2_PLACEMENT_3D('',#530,#440,#441);
#360=DIRECTION('',(0.,0.,1.));
#361=DIRECTION('',(1.,0.,0.));
#362=DIRECTION('',(0.,0.,-1.));
#363=DIRECTION('',(-1.,0.,0.));
#364=DIRECTION('',(0.,0.,-1.));
#365=DIRECTION('',(-1.,0.,0.));
#366=DIRECTION('',(0.,0.,-1.));
#367=DIRECTION('',(-1.,0.,0.));
#368=DIRECTION('',(0.,0.,-1.));
#369=DIRECTION('',(-1.,0.,0.));
#370=DIRECTION('',(0.,0.,-1.));
#371=DIRECTION('',(-1.,0.,0.));
#372=DIRECTION('',(0.,0.,-1.));
#373=DIRECTION('',(-1.,0.,0.));
#374=DIRECTION('',(0.,0.,1.));
#375=DIRECTION('',(1.,0.,5.52899912661931E-017));
#376=DIRECTION('',(0.,0.,-1.));
#377=DIRECTION('',(-1.,0.,0.));
#378=DIRECTION('',(0.,0.,-1.));
#379=DIRECTION('',(-1.,0.,0.));
#380=DIRECTION('',(0.,0.,-1.));
#381=DIRECTION('',(-1.,0.,0.));
#382=DIRECTION('',(0.,0.,1.));
#383=DIRECTION('',(1.,0.,0.));
#384=DIRECTION('',(0.,0.,-1.));
#385=DIRECTION('',(-1.,0.,0.));
#386=DIRECTION('',(0.,0.,-1.));
#387=DIRECTION('',(-1.,0.,0.));
#388=DIRECTION('',(0.,0.,-1.));
#389=DIRECTION('',(-1.,0.,0.));
#390=DIRECTION('',(0.,0.,-1.));
#391=DIRECTION('',(-1.,0.,0.));
#392=DIRECTION('',(0.,0.,-1.));
#393=DIRECTION('',(-1.,0.,0.));
#394=DIRECTION('',(0.,0.,-1.));
#395=DIRECTION('',(-1.,0.,0.));
#396=DIRECTION('',(0.,0.,-1.));
#397=DIRECTION('',(-1.,0.,0.));
#398=DIRECTION('',(0.,0.,-1.));
#399=DIRECTION('',(-1.,0.,0.));
#400=DIRECTION('',(0.,0.,-1.));
#401=DIRECTION('',(-1.,0.,0.));
#402=DIRECTION('',(0.,0.,1.));
#403=DIRECTION('',(1.,0.,0.));
#404=DIRECTION('',(0.,0.,-1.));
#405=DIRECTION('',(-1.,0.,0.));
#406=DIRECTION('',(0.,0.,-1.));
#407=DIRECTION('',(-1.,0.,0.));
#408=DIRECTION('',(0.,0.,-1.));
#409=DIRECTION('',(-1.,0.,0.));
#410=DIRECTION('',(0.,0.,1.));
#411=DIRECTION('',(1.,0.,6.89956637556649E-018));
#412=DIRECTION('',(0.,0.,-1.));
#413=DIRECTION('',(-1.,0.,0.));
#414=DIRECTION('',(0.,0.,-1.));
#415=DIRECTION('',(-1.,0.,0.));
#416=DIRECTION('',(0.,0.,-1.));
#417=DIRECTION('',(-1.,0.,0.));
#418=DIRECTION('',(0.,0.,-1.));
#419=DIRECTION('',(-1.,0.,-7.02890291062375E-018));
#420=DIRECTION('',(0.,0.,-1.));
#421=DIRECTION('',(-1.,0.,0.));
#422=DIRECTION('',(0.,0.,-1.));
#423=DIRECTION('',(-1.,0.,0.));
#424=DIRECTION('',(0.,0.,-1.));
#425=DIRECTION('',(-1.,0.,0.));
#426=DIRECTION('',(0.,0.,-1.));
#427=DIRECTION('',(-1.,0.,0.));
#428=DIRECTION('',(0.,0.,-1.));
#429=DIRECTION('',(-1.,0.,0.));
#430=DIRECTION('',(0.,0.,-1.));
#431=DIRECTION('',(-1.,0.,0.));
#432=DIRECTION('',(0.,0.,-1.));
#433=DIRECTION('',(-1.,0.,0.));
#434=DIRECTION('',(0.,0.,1.));
#435=DIRECTION('',(1.,0.,-2.99908831923929E-017));
#436=DIRECTION('',(0.,0.,-1.));
#437=DIRECTION('',(-1.,0.,0.));
#438=DIRECTION('',(0.,0.,-1.));
#439=DIRECTION('',(-1.,0.,0.));
#440=DIRECTION('',(0.,0.,1.));
#441=DIRECTION('',(1.,0.,0.));
#442=CARTESIAN_POINT('',(0.,0.,0.));
#443=CARTESIAN_POINT('',(0.,0.,-17.));
#444=CARTESIAN_POINT('',(-3.,0.,-17.));
#445=CARTESIAN_POINT('',(-2.8421709430404E-014,0.,-17.));
#446=CARTESIAN_POINT('',(0.,0.,-15.));
#447=CARTESIAN_POINT('',(-4.,0.,-15.));
#448=CARTESIAN_POINT('',(-3.,0.,-17.));
#449=CARTESIAN_POINT('',(-3.,6.00000000000001,-17.));
#450=CARTESIAN_POINT('',(3.,6.00000000000001,-17.));
#451=CARTESIAN_POINT('',(3.,0.,-17.));
#452=CARTESIAN_POINT('',(3.,-6.00000000000001,-17.));
#453=CARTESIAN_POINT('',(-3.,-6.00000000000001,-17.));
#454=CARTESIAN_POINT('',(-3.,0.,-17.));
#455=CARTESIAN_POINT('',(-3.64142982636372,0.,-16.5189276302272));
#456=CARTESIAN_POINT('',(-3.64142982636372,7.28285965272743,-16.5189276302272));
#457=CARTESIAN_POINT('',(3.64142982636372,7.28285965272743,-16.5189276302272));
#458=CARTESIAN_POINT('',(3.64142982636372,0.,-16.5189276302272));
#459=CARTESIAN_POINT('',(3.64142982636372,-7.28285965272743,-16.5189276302272));
#460=CARTESIAN_POINT('',(-3.64142982636372,-7.28285965272743,-16.5189276302272));
#461=CARTESIAN_POINT('',(-3.64142982636372,0.,-16.5189276302272));
#462=CARTESIAN_POINT('',(-4.,0.,-15.8017872829546));
#463=CARTESIAN_POINT('',(-4.,8.00000000000001,-15.8017872829546));
#464=CARTESIAN_POINT('',(4.,8.00000000000001,-15.8017872829546));
#465=CARTESIAN_POINT('',(4.,0.,-15.8017872829546));
#466=CARTESIAN_POINT('',(4.,-8.00000000000001,-15.8017872829546));
#467=CARTESIAN_POINT('',(-4.,-8.00000000000001,-15.8017872829546));
#468=CARTESIAN_POINT('',(-4.,0.,-15.8017872829546));
#469=CARTESIAN_POINT('',(-4.,0.,-15.));
#470=CARTESIAN_POINT('',(-4.,8.00000000000001,-15.));
#471=CARTESIAN_POINT('',(4.,8.00000000000001,-15.));
#472=CARTESIAN_POINT('',(4.,0.,-15.));
#473=CARTESIAN_POINT('',(4.,-8.00000000000001,-15.));
#474=CARTESIAN_POINT('',(-4.,-8.00000000000001,-15.));
#475=CARTESIAN_POINT('',(-4.,0.,-15.));
#476=CARTESIAN_POINT('',(0.,0.,-0.5));
#477=CARTESIAN_POINT('',(-4.,0.,-0.5));
#478=CARTESIAN_POINT('',(0.,0.,0.));
#479=CARTESIAN_POINT('',(0.,0.,0.));
#480=CARTESIAN_POINT('',(-4.5,0.,0.));
#481=CARTESIAN_POINT('',(0.,0.,-0.5));
#482=CARTESIAN_POINT('',(0.,0.,0.));
#483=CARTESIAN_POINT('',(-5.5,0.,0.));
#484=CARTESIAN_POINT('',(4.5,0.,0.));
#485=CARTESIAN_POINT('',(0.,0.,0.746410161513771));
#486=CARTESIAN_POINT('',(-5.7,0.,0.746410161513771));
#487=CARTESIAN_POINT('',(0.,0.,0.));
#488=CARTESIAN_POINT('',(0.,0.,5.));
#489=CARTESIAN_POINT('',(-5.7,0.,5.));
#490=CARTESIAN_POINT('',(0.,0.,0.));
#491=CARTESIAN_POINT('',(0.,0.,5.));
#492=CARTESIAN_POINT('',(-6.2,0.,5.));
#493=CARTESIAN_POINT('',(5.7,0.,5.));
#494=CARTESIAN_POINT('',(0.,0.,5.3));
#495=CARTESIAN_POINT('',(-6.5,0.,5.3));
#496=CARTESIAN_POINT('',(0.,0.,5.3));
#497=CARTESIAN_POINT('',(0.,0.,5.8));
#498=CARTESIAN_POINT('',(-6.5,0.,5.8));
#499=CARTESIAN_POINT('',(0.,0.,0.));
#500=CARTESIAN_POINT('',(0.,0.,5.8));
#501=CARTESIAN_POINT('',(-5.69999999999999,0.,5.8));
#502=CARTESIAN_POINT('',(6.5,0.,5.8));
#503=CARTESIAN_POINT('',(0.,0.,8.));
#504=CARTESIAN_POINT('',(-5.69999999999999,0.,8.));
#505=CARTESIAN_POINT('',(0.,0.,0.));
#506=CARTESIAN_POINT('',(0.,0.,8.8));
#507=CARTESIAN_POINT('',(-6.5,0.,8.8));
#508=CARTESIAN_POINT('',(0.,0.,8.));
#509=CARTESIAN_POINT('',(0.,0.,9.40000000000001));
#510=CARTESIAN_POINT('',(-6.5,0.,9.40000000000001));
#511=CARTESIAN_POINT('',(0.,0.,0.));
#512=CARTESIAN_POINT('',(0.,0.,9.85915221305168));
#513=CARTESIAN_POINT('',(-3.78334940611091,0.,9.85915221305168));
#514=CARTESIAN_POINT('',(0.,0.,9.40000000000001));
#515=CARTESIAN_POINT('',(0.,0.,10.8451682268955));
#516=CARTESIAN_POINT('',(-2.95,0.,10.8451682268955));
#517=CARTESIAN_POINT('',(0.,0.,10.8451682268955));
#518=CARTESIAN_POINT('',(0.,0.,26.4226497308104));
#519=CARTESIAN_POINT('',(-2.95,0.,26.4226497308104));
#520=CARTESIAN_POINT('',(0.,0.,0.));
#521=CARTESIAN_POINT('',(0.,0.,26.8556624327026));
#522=CARTESIAN_POINT('',(-3.2,0.,26.8556624327026));
#523=CARTESIAN_POINT('',(0.,0.,26.4226497308104));
#524=CARTESIAN_POINT('',(0.,0.,27.));
#525=CARTESIAN_POINT('',(-3.45,0.,27.));
#526=CARTESIAN_POINT('',(0.,0.,26.8556624327026));
#527=CARTESIAN_POINT('',(0.,0.,28.));
#528=CARTESIAN_POINT('',(-3.45,0.,28.));
#529=CARTESIAN_POINT('',(0.,0.,0.));
#530=CARTESIAN_POINT('',(3.45,0.,28.));
#531=(
GEOMETRIC_REPRESENTATION_CONTEXT(3)
GLOBAL_UNCERTAINTY_ASSIGNED_CONTEXT((#532))
GLOBAL_UNIT_ASSIGNED_CONTEXT((#538,#534,#533))
REPRESENTATION_CONTEXT('N_01_080_0003_X__3D_Modell',
'TOP_LEVEL_ASSEMBLY_PART')
);
#532=UNCERTAINTY_MEASURE_WITH_UNIT(LENGTH_MEASURE(0.0254),#538,
'DISTANCE_ACCURACY_VALUE','Maximum Tolerance applied to model');
#533=(
NAMED_UNIT(*)
SI_UNIT($,.STERADIAN.)
SOLID_ANGLE_UNIT()
);
#534=(
CONVERSION_BASED_UNIT('DEGREE',#536)
NAMED_UNIT(#535)
PLANE_ANGLE_UNIT()
);
#535=DIMENSIONAL_EXPONENTS(0.,0.,0.,0.,0.,0.,0.);
#536=PLANE_ANGLE_MEASURE_WITH_UNIT(PLANE_ANGLE_MEASURE(0.0174532925),#537);
#537=(
NAMED_UNIT(*)
PLANE_ANGLE_UNIT()
SI_UNIT($,.RADIAN.)
);
#538=(
LENGTH_UNIT()
NAMED_UNIT(*)
SI_UNIT(.MILLI.,.METRE.)
);
ENDSEC;
END-ISO-10303-21;
