ISO-10303-21;
HEADER;
/* Generated by software containing ST-Developer
 * from STEP Tools, Inc. (www.steptools.com) 
 */
/* OPTION: using custom schema-name function */

FILE_DESCRIPTION(
/* description */ (''),
/* implementation_level */ '2;1');

FILE_NAME(
/* name */ '',
/* time_stamp */ '2015-06-01T08:19:24+02:00',
/* author */ (''),
/* organization */ (''),
/* preprocessor_version */ 'ST-DEVELOPER v11',
/* originating_system */ 'SIEMENS PLM Software NX 7.5',
/* authorisation */ '');

FILE_SCHEMA (('CONFIG_CONTROL_DESIGN'));
ENDSEC;

DATA;
#10=SHAPE_REPRESENTATION_RELATIONSHIP('None',
'relationship between N 01 080 0004 (1)_02-None and N 01 080 0004 (1)_0
2-None',#94,#11);
#11=ADVANCED_BREP_SHAPE_REPRESENTATION('N 01 080 0004 (1)_02-None',(#95),
#611);
#12=CC_DESIGN_APPROVAL(#24,(#82));
#13=CC_DESIGN_APPROVAL(#25,(#84));
#14=CC_DESIGN_APPROVAL(#26,(#31));
#15=APPROVAL_PERSON_ORGANIZATION(#69,#24,#18);
#16=APPROVAL_PERSON_ORGANIZATION(#70,#25,#19);
#17=APPROVAL_PERSON_ORGANIZATION(#71,#26,#20);
#18=APPROVAL_ROLE('approver');
#19=APPROVAL_ROLE('approver');
#20=APPROVAL_ROLE('approver');
#21=APPROVAL_DATE_TIME(#39,#24);
#22=APPROVAL_DATE_TIME(#40,#25);
#23=APPROVAL_DATE_TIME(#41,#26);
#24=APPROVAL(#27,' ');
#25=APPROVAL(#28,' ');
#26=APPROVAL(#29,' ');
#27=APPROVAL_STATUS('not_yet_approved');
#28=APPROVAL_STATUS('not_yet_approved');
#29=APPROVAL_STATUS('not_yet_approved');
#30=CC_DESIGN_SECURITY_CLASSIFICATION(#31,(#84));
#31=SECURITY_CLASSIFICATION(' ',' ',#32);
#32=SECURITY_CLASSIFICATION_LEVEL('confidential');
#33=CC_DESIGN_DATE_AND_TIME_ASSIGNMENT(#37,#35,(#82));
#34=CC_DESIGN_DATE_AND_TIME_ASSIGNMENT(#38,#36,(#31));
#35=DATE_TIME_ROLE('creation_date');
#36=DATE_TIME_ROLE('classification_date');
#37=DATE_AND_TIME(#52,#42);
#38=DATE_AND_TIME(#53,#43);
#39=DATE_AND_TIME(#54,#44);
#40=DATE_AND_TIME(#55,#45);
#41=DATE_AND_TIME(#56,#46);
#42=LOCAL_TIME(0,0,0.,#47);
#43=LOCAL_TIME(0,0,0.,#48);
#44=LOCAL_TIME(0,0,0.,#49);
#45=LOCAL_TIME(0,0,0.,#50);
#46=LOCAL_TIME(0,0,0.,#51);
#47=COORDINATED_UNIVERSAL_TIME_OFFSET(0,0,.BEHIND.);
#48=COORDINATED_UNIVERSAL_TIME_OFFSET(0,0,.BEHIND.);
#49=COORDINATED_UNIVERSAL_TIME_OFFSET(0,0,.BEHIND.);
#50=COORDINATED_UNIVERSAL_TIME_OFFSET(0,0,.BEHIND.);
#51=COORDINATED_UNIVERSAL_TIME_OFFSET(0,0,.BEHIND.);
#52=CALENDAR_DATE(0,1,1);
#53=CALENDAR_DATE(0,1,1);
#54=CALENDAR_DATE(0,1,1);
#55=CALENDAR_DATE(0,1,1);
#56=CALENDAR_DATE(0,1,1);
#57=CC_DESIGN_PERSON_AND_ORGANIZATION_ASSIGNMENT(#65,#61,(#82,#84));
#58=CC_DESIGN_PERSON_AND_ORGANIZATION_ASSIGNMENT(#66,#62,(#86));
#59=CC_DESIGN_PERSON_AND_ORGANIZATION_ASSIGNMENT(#67,#63,(#84));
#60=CC_DESIGN_PERSON_AND_ORGANIZATION_ASSIGNMENT(#68,#64,(#31));
#61=PERSON_AND_ORGANIZATION_ROLE('creator');
#62=PERSON_AND_ORGANIZATION_ROLE('design_owner');
#63=PERSON_AND_ORGANIZATION_ROLE('design_supplier');
#64=PERSON_AND_ORGANIZATION_ROLE('classification_officer');
#65=PERSON_AND_ORGANIZATION(#79,#72);
#66=PERSON_AND_ORGANIZATION(#79,#73);
#67=PERSON_AND_ORGANIZATION(#79,#74);
#68=PERSON_AND_ORGANIZATION(#79,#75);
#69=PERSON_AND_ORGANIZATION(#79,#76);
#70=PERSON_AND_ORGANIZATION(#79,#77);
#71=PERSON_AND_ORGANIZATION(#79,#78);
#72=ORGANIZATION(' ',' ',' ');
#73=ORGANIZATION(' ',' ',' ');
#74=ORGANIZATION(' ',' ',' ');
#75=ORGANIZATION(' ',' ',' ');
#76=ORGANIZATION(' ',' ',' ');
#77=ORGANIZATION(' ',' ',' ');
#78=ORGANIZATION(' ',' ',' ');
#79=PERSON(' ',' ',' ',(' '),$,$);
#80=SHAPE_DEFINITION_REPRESENTATION(#81,#94);
#81=PRODUCT_DEFINITION_SHAPE('','',#82);
#82=PRODUCT_DEFINITION(' ','',#84,#83);
#83=DESIGN_CONTEXT('',#93,'design');
#84=PRODUCT_DEFINITION_FORMATION_WITH_SPECIFIED_SOURCE(' ',' ',#86,.NOT_KNOWN.);
#85=PRODUCT_RELATED_PRODUCT_CATEGORY('detail','',(#86));
#86=PRODUCT('N 01 080 0004 (1)_02','N 01 080 0004 (1)_02',' ',(#91));
#87=PRODUCT_CATEGORY_RELATIONSHIP(' ',' ',#89,#90);
#88=PRODUCT_CATEGORY_RELATIONSHIP('','',#90,#85);
#89=PRODUCT_CATEGORY('part',' ');
#90=PRODUCT_CATEGORY(' ','');
#91=MECHANICAL_CONTEXT(' ',#93,'mechanical');
#92=APPLICATION_PROTOCOL_DEFINITION('international standard',
'config_control_design',1994,#93);
#93=APPLICATION_CONTEXT(
'configuration controlled 3D designs of mechanical parts and assemblies');
#94=SHAPE_REPRESENTATION('N 01 080 0004 (1)_02-None',(#363),#611);
#95=MANIFOLD_SOLID_BREP('',#96);
#96=CLOSED_SHELL('',(#163,#164,#165,#166,#167,#168,#169,#170,#171,#172,#173,
#174,#175,#176,#177,#178,#179,#180,#181,#182,#183,#184,#185,#186,#187));
#97=TOROIDAL_SURFACE('',#380,6.2,0.3);
#98=TOROIDAL_SURFACE('',#394,5.25,1.);
#99=TOROIDAL_SURFACE('',#406,4.75,0.500000000000001);
#100=CONICAL_SURFACE('',#370,4.,45.);
#101=CONICAL_SURFACE('',#374,5.5,15.);
#102=CONICAL_SURFACE('',#388,5.69999999999999,45.0000000000001);
#103=CONICAL_SURFACE('',#392,6.5,75.0685828218626);
#104=CONICAL_SURFACE('',#398,4.25,44.9999999999973);
#105=CONICAL_SURFACE('',#402,4.15,44.9999999999993);
#106=CONICAL_SURFACE('',#408,4.5,59.9999999999995);
#107=CYLINDRICAL_SURFACE('',#368,4.);
#108=CYLINDRICAL_SURFACE('',#376,5.7);
#109=CYLINDRICAL_SURFACE('',#382,6.5);
#110=CYLINDRICAL_SURFACE('',#386,5.69999999999999);
#111=CYLINDRICAL_SURFACE('',#390,6.5);
#112=CYLINDRICAL_SURFACE('',#396,4.25);
#113=CYLINDRICAL_SURFACE('',#400,4.15);
#114=CYLINDRICAL_SURFACE('',#404,4.25);
#115=CYLINDRICAL_SURFACE('',#410,4.75);
#116=(
BOUNDED_SURFACE()
B_SPLINE_SURFACE(3,3,((#516,#517,#518,#519,#520,#521,#522),(#523,#524,#525,
#526,#527,#528,#529),(#530,#531,#532,#533,#534,#535,#536),(#537,#538,#539,
#540,#541,#542,#543)),.UNSPECIFIED.,.F.,.T.,.F.)
B_SPLINE_SURFACE_WITH_KNOTS((4,4),(1,3,3,3,1),(0.,1.),(-0.5,0.,0.5,1.,1.5),
 .UNSPECIFIED.)
GEOMETRIC_REPRESENTATION_ITEM()
RATIONAL_B_SPLINE_SURFACE(((1.,0.333333333333333,0.333333333333333,1.,0.333333333333333,
0.333333333333333,1.),(0.929618127333277,0.309872709111092,0.309872709111092,
0.929618127333277,0.309872709111092,0.309872709111092,0.929618127333277),
(0.929618127333277,0.309872709111092,0.309872709111092,0.929618127333277,
0.309872709111092,0.309872709111092,0.929618127333277),(1.,0.333333333333333,
0.333333333333333,1.,0.333333333333333,0.333333333333333,1.)))
REPRESENTATION_ITEM('')
SURFACE()
);
#117=FACE_BOUND('',#196,.T.);
#118=FACE_BOUND('',#197,.T.);
#119=FACE_BOUND('',#198,.T.);
#120=FACE_BOUND('',#199,.T.);
#121=FACE_BOUND('',#200,.T.);
#122=FACE_BOUND('',#201,.T.);
#123=FACE_BOUND('',#202,.T.);
#124=FACE_BOUND('',#203,.T.);
#125=FACE_BOUND('',#204,.T.);
#126=FACE_BOUND('',#205,.T.);
#127=FACE_BOUND('',#206,.T.);
#128=FACE_BOUND('',#207,.T.);
#129=FACE_BOUND('',#208,.T.);
#130=FACE_BOUND('',#209,.T.);
#131=FACE_BOUND('',#210,.T.);
#132=FACE_BOUND('',#211,.T.);
#133=FACE_BOUND('',#212,.T.);
#134=FACE_BOUND('',#213,.T.);
#135=FACE_BOUND('',#214,.T.);
#136=FACE_BOUND('',#215,.T.);
#137=FACE_BOUND('',#216,.T.);
#138=FACE_BOUND('',#217,.T.);
#139=FACE_BOUND('',#218,.T.);
#140=FACE_BOUND('',#219,.T.);
#141=FACE_BOUND('',#220,.T.);
#142=FACE_BOUND('',#221,.T.);
#143=FACE_BOUND('',#222,.T.);
#144=FACE_BOUND('',#223,.T.);
#145=FACE_BOUND('',#224,.T.);
#146=FACE_BOUND('',#225,.T.);
#147=FACE_BOUND('',#226,.T.);
#148=FACE_BOUND('',#227,.T.);
#149=FACE_BOUND('',#228,.T.);
#150=FACE_BOUND('',#229,.T.);
#151=FACE_BOUND('',#230,.T.);
#152=FACE_BOUND('',#231,.T.);
#153=FACE_BOUND('',#232,.T.);
#154=FACE_BOUND('',#233,.T.);
#155=FACE_BOUND('',#234,.T.);
#156=FACE_BOUND('',#235,.T.);
#157=FACE_BOUND('',#236,.T.);
#158=FACE_BOUND('',#237,.T.);
#159=FACE_BOUND('',#238,.T.);
#160=FACE_BOUND('',#239,.T.);
#161=FACE_BOUND('',#240,.T.);
#162=FACE_BOUND('',#241,.T.);
#163=ADVANCED_FACE('',(#193),#188,.T.);
#164=ADVANCED_FACE('',(#117,#118),#116,.T.);
#165=ADVANCED_FACE('',(#119,#120),#107,.T.);
#166=ADVANCED_FACE('',(#121,#122),#100,.T.);
#167=ADVANCED_FACE('',(#123,#124),#189,.T.);
#168=ADVANCED_FACE('',(#125,#126),#101,.T.);
#169=ADVANCED_FACE('',(#127,#128),#108,.T.);
#170=ADVANCED_FACE('',(#129,#130),#190,.T.);
#171=ADVANCED_FACE('',(#131,#132),#97,.T.);
#172=ADVANCED_FACE('',(#133,#134),#109,.T.);
#173=ADVANCED_FACE('',(#135,#136),#191,.T.);
#174=ADVANCED_FACE('',(#137,#138),#110,.T.);
#175=ADVANCED_FACE('',(#139,#140),#102,.T.);
#176=ADVANCED_FACE('',(#141,#142),#111,.T.);
#177=ADVANCED_FACE('',(#143,#144),#103,.T.);
#178=ADVANCED_FACE('',(#145,#146),#98,.F.);
#179=ADVANCED_FACE('',(#147,#148),#112,.T.);
#180=ADVANCED_FACE('',(#149,#150),#104,.T.);
#181=ADVANCED_FACE('',(#151,#152),#113,.T.);
#182=ADVANCED_FACE('',(#153,#154),#105,.T.);
#183=ADVANCED_FACE('',(#155,#156),#114,.T.);
#184=ADVANCED_FACE('',(#157,#158),#99,.F.);
#185=ADVANCED_FACE('',(#159,#160),#106,.T.);
#186=ADVANCED_FACE('',(#161,#162),#115,.T.);
#187=ADVANCED_FACE('',(#194),#192,.T.);
#188=PLANE('',#365);
#189=PLANE('',#372);
#190=PLANE('',#378);
#191=PLANE('',#384);
#192=PLANE('',#411);
#193=FACE_OUTER_BOUND('',#195,.T.);
#194=FACE_OUTER_BOUND('',#242,.T.);
#195=EDGE_LOOP('',(#243));
#196=EDGE_LOOP('',(#244));
#197=EDGE_LOOP('',(#245));
#198=EDGE_LOOP('',(#246));
#199=EDGE_LOOP('',(#247));
#200=EDGE_LOOP('',(#248));
#201=EDGE_LOOP('',(#249));
#202=EDGE_LOOP('',(#250));
#203=EDGE_LOOP('',(#251));
#204=EDGE_LOOP('',(#252));
#205=EDGE_LOOP('',(#253));
#206=EDGE_LOOP('',(#254));
#207=EDGE_LOOP('',(#255));
#208=EDGE_LOOP('',(#256));
#209=EDGE_LOOP('',(#257));
#210=EDGE_LOOP('',(#258));
#211=EDGE_LOOP('',(#259));
#212=EDGE_LOOP('',(#260));
#213=EDGE_LOOP('',(#261));
#214=EDGE_LOOP('',(#262));
#215=EDGE_LOOP('',(#263));
#216=EDGE_LOOP('',(#264));
#217=EDGE_LOOP('',(#265));
#218=EDGE_LOOP('',(#266));
#219=EDGE_LOOP('',(#267));
#220=EDGE_LOOP('',(#268));
#221=EDGE_LOOP('',(#269));
#222=EDGE_LOOP('',(#270));
#223=EDGE_LOOP('',(#271));
#224=EDGE_LOOP('',(#272));
#225=EDGE_LOOP('',(#273));
#226=EDGE_LOOP('',(#274));
#227=EDGE_LOOP('',(#275));
#228=EDGE_LOOP('',(#276));
#229=EDGE_LOOP('',(#277));
#230=EDGE_LOOP('',(#278));
#231=EDGE_LOOP('',(#279));
#232=EDGE_LOOP('',(#280));
#233=EDGE_LOOP('',(#281));
#234=EDGE_LOOP('',(#282));
#235=EDGE_LOOP('',(#283));
#236=EDGE_LOOP('',(#284));
#237=EDGE_LOOP('',(#285));
#238=EDGE_LOOP('',(#286));
#239=EDGE_LOOP('',(#287));
#240=EDGE_LOOP('',(#288));
#241=EDGE_LOOP('',(#289));
#242=EDGE_LOOP('',(#290));
#243=ORIENTED_EDGE('',*,*,#315,.T.);
#244=ORIENTED_EDGE('',*,*,#316,.T.);
#245=ORIENTED_EDGE('',*,*,#315,.F.);
#246=ORIENTED_EDGE('',*,*,#317,.T.);
#247=ORIENTED_EDGE('',*,*,#316,.F.);
#248=ORIENTED_EDGE('',*,*,#318,.T.);
#249=ORIENTED_EDGE('',*,*,#317,.F.);
#250=ORIENTED_EDGE('',*,*,#319,.T.);
#251=ORIENTED_EDGE('',*,*,#318,.F.);
#252=ORIENTED_EDGE('',*,*,#320,.T.);
#253=ORIENTED_EDGE('',*,*,#319,.F.);
#254=ORIENTED_EDGE('',*,*,#321,.T.);
#255=ORIENTED_EDGE('',*,*,#320,.F.);
#256=ORIENTED_EDGE('',*,*,#322,.T.);
#257=ORIENTED_EDGE('',*,*,#321,.F.);
#258=ORIENTED_EDGE('',*,*,#323,.T.);
#259=ORIENTED_EDGE('',*,*,#322,.F.);
#260=ORIENTED_EDGE('',*,*,#324,.T.);
#261=ORIENTED_EDGE('',*,*,#323,.F.);
#262=ORIENTED_EDGE('',*,*,#325,.T.);
#263=ORIENTED_EDGE('',*,*,#324,.F.);
#264=ORIENTED_EDGE('',*,*,#326,.T.);
#265=ORIENTED_EDGE('',*,*,#325,.F.);
#266=ORIENTED_EDGE('',*,*,#327,.T.);
#267=ORIENTED_EDGE('',*,*,#326,.F.);
#268=ORIENTED_EDGE('',*,*,#328,.T.);
#269=ORIENTED_EDGE('',*,*,#327,.F.);
#270=ORIENTED_EDGE('',*,*,#329,.T.);
#271=ORIENTED_EDGE('',*,*,#328,.F.);
#272=ORIENTED_EDGE('',*,*,#330,.T.);
#273=ORIENTED_EDGE('',*,*,#329,.F.);
#274=ORIENTED_EDGE('',*,*,#331,.T.);
#275=ORIENTED_EDGE('',*,*,#330,.F.);
#276=ORIENTED_EDGE('',*,*,#332,.T.);
#277=ORIENTED_EDGE('',*,*,#331,.F.);
#278=ORIENTED_EDGE('',*,*,#333,.T.);
#279=ORIENTED_EDGE('',*,*,#332,.F.);
#280=ORIENTED_EDGE('',*,*,#334,.T.);
#281=ORIENTED_EDGE('',*,*,#333,.F.);
#282=ORIENTED_EDGE('',*,*,#335,.T.);
#283=ORIENTED_EDGE('',*,*,#334,.F.);
#284=ORIENTED_EDGE('',*,*,#336,.T.);
#285=ORIENTED_EDGE('',*,*,#335,.F.);
#286=ORIENTED_EDGE('',*,*,#337,.T.);
#287=ORIENTED_EDGE('',*,*,#336,.F.);
#288=ORIENTED_EDGE('',*,*,#338,.T.);
#289=ORIENTED_EDGE('',*,*,#337,.F.);
#290=ORIENTED_EDGE('',*,*,#338,.F.);
#291=VERTEX_POINT('',#512);
#292=VERTEX_POINT('',#515);
#293=VERTEX_POINT('',#545);
#294=VERTEX_POINT('',#548);
#295=VERTEX_POINT('',#551);
#296=VERTEX_POINT('',#554);
#297=VERTEX_POINT('',#557);
#298=VERTEX_POINT('',#560);
#299=VERTEX_POINT('',#563);
#300=VERTEX_POINT('',#566);
#301=VERTEX_POINT('',#569);
#302=VERTEX_POINT('',#572);
#303=VERTEX_POINT('',#575);
#304=VERTEX_POINT('',#578);
#305=VERTEX_POINT('',#581);
#306=VERTEX_POINT('',#584);
#307=VERTEX_POINT('',#587);
#308=VERTEX_POINT('',#590);
#309=VERTEX_POINT('',#593);
#310=VERTEX_POINT('',#596);
#311=VERTEX_POINT('',#599);
#312=VERTEX_POINT('',#602);
#313=VERTEX_POINT('',#605);
#314=VERTEX_POINT('',#608);
#315=EDGE_CURVE('',#291,#291,#339,.T.);
#316=EDGE_CURVE('',#292,#292,#340,.T.);
#317=EDGE_CURVE('',#293,#293,#341,.T.);
#318=EDGE_CURVE('',#294,#294,#342,.T.);
#319=EDGE_CURVE('',#295,#295,#343,.T.);
#320=EDGE_CURVE('',#296,#296,#344,.T.);
#321=EDGE_CURVE('',#297,#297,#345,.T.);
#322=EDGE_CURVE('',#298,#298,#346,.T.);
#323=EDGE_CURVE('',#299,#299,#347,.T.);
#324=EDGE_CURVE('',#300,#300,#348,.T.);
#325=EDGE_CURVE('',#301,#301,#349,.T.);
#326=EDGE_CURVE('',#302,#302,#350,.T.);
#327=EDGE_CURVE('',#303,#303,#351,.T.);
#328=EDGE_CURVE('',#304,#304,#352,.T.);
#329=EDGE_CURVE('',#305,#305,#353,.T.);
#330=EDGE_CURVE('',#306,#306,#354,.T.);
#331=EDGE_CURVE('',#307,#307,#355,.T.);
#332=EDGE_CURVE('',#308,#308,#356,.T.);
#333=EDGE_CURVE('',#309,#309,#357,.T.);
#334=EDGE_CURVE('',#310,#310,#358,.T.);
#335=EDGE_CURVE('',#311,#311,#359,.T.);
#336=EDGE_CURVE('',#312,#312,#360,.T.);
#337=EDGE_CURVE('',#313,#313,#361,.T.);
#338=EDGE_CURVE('',#314,#314,#362,.T.);
#339=CIRCLE('',#364,3.);
#340=CIRCLE('',#366,4.);
#341=CIRCLE('',#367,4.);
#342=CIRCLE('',#369,4.5);
#343=CIRCLE('',#371,5.5);
#344=CIRCLE('',#373,5.7);
#345=CIRCLE('',#375,5.7);
#346=CIRCLE('',#377,6.2);
#347=CIRCLE('',#379,6.5);
#348=CIRCLE('',#381,6.5);
#349=CIRCLE('',#383,5.69999999999999);
#350=CIRCLE('',#385,5.69999999999999);
#351=CIRCLE('',#387,6.5);
#352=CIRCLE('',#389,6.5);
#353=CIRCLE('',#391,4.99233734943967);
#354=CIRCLE('',#393,4.25);
#355=CIRCLE('',#395,4.25);
#356=CIRCLE('',#397,4.15);
#357=CIRCLE('',#399,4.15);
#358=CIRCLE('',#401,4.25);
#359=CIRCLE('',#403,4.25);
#360=CIRCLE('',#405,4.5);
#361=CIRCLE('',#407,4.75);
#362=CIRCLE('',#409,4.75);
#363=AXIS2_PLACEMENT_3D('',#510,#412,#413);
#364=AXIS2_PLACEMENT_3D('',#511,#414,#415);
#365=AXIS2_PLACEMENT_3D('',#513,#416,#417);
#366=AXIS2_PLACEMENT_3D('',#514,#418,#419);
#367=AXIS2_PLACEMENT_3D('',#544,#420,#421);
#368=AXIS2_PLACEMENT_3D('',#546,#422,#423);
#369=AXIS2_PLACEMENT_3D('',#547,#424,#425);
#370=AXIS2_PLACEMENT_3D('',#549,#426,#427);
#371=AXIS2_PLACEMENT_3D('',#550,#428,#429);
#372=AXIS2_PLACEMENT_3D('',#552,#430,#431);
#373=AXIS2_PLACEMENT_3D('',#553,#432,#433);
#374=AXIS2_PLACEMENT_3D('',#555,#434,#435);
#375=AXIS2_PLACEMENT_3D('',#556,#436,#437);
#376=AXIS2_PLACEMENT_3D('',#558,#438,#439);
#377=AXIS2_PLACEMENT_3D('',#559,#440,#441);
#378=AXIS2_PLACEMENT_3D('',#561,#442,#443);
#379=AXIS2_PLACEMENT_3D('',#562,#444,#445);
#380=AXIS2_PLACEMENT_3D('',#564,#446,#447);
#381=AXIS2_PLACEMENT_3D('',#565,#448,#449);
#382=AXIS2_PLACEMENT_3D('',#567,#450,#451);
#383=AXIS2_PLACEMENT_3D('',#568,#452,#453);
#384=AXIS2_PLACEMENT_3D('',#570,#454,#455);
#385=AXIS2_PLACEMENT_3D('',#571,#456,#457);
#386=AXIS2_PLACEMENT_3D('',#573,#458,#459);
#387=AXIS2_PLACEMENT_3D('',#574,#460,#461);
#388=AXIS2_PLACEMENT_3D('',#576,#462,#463);
#389=AXIS2_PLACEMENT_3D('',#577,#464,#465);
#390=AXIS2_PLACEMENT_3D('',#579,#466,#467);
#391=AXIS2_PLACEMENT_3D('',#580,#468,#469);
#392=AXIS2_PLACEMENT_3D('',#582,#470,#471);
#393=AXIS2_PLACEMENT_3D('',#583,#472,#473);
#394=AXIS2_PLACEMENT_3D('',#585,#474,#475);
#395=AXIS2_PLACEMENT_3D('',#586,#476,#477);
#396=AXIS2_PLACEMENT_3D('',#588,#478,#479);
#397=AXIS2_PLACEMENT_3D('',#589,#480,#481);
#398=AXIS2_PLACEMENT_3D('',#591,#482,#483);
#399=AXIS2_PLACEMENT_3D('',#592,#484,#485);
#400=AXIS2_PLACEMENT_3D('',#594,#486,#487);
#401=AXIS2_PLACEMENT_3D('',#595,#488,#489);
#402=AXIS2_PLACEMENT_3D('',#597,#490,#491);
#403=AXIS2_PLACEMENT_3D('',#598,#492,#493);
#404=AXIS2_PLACEMENT_3D('',#600,#494,#495);
#405=AXIS2_PLACEMENT_3D('',#601,#496,#497);
#406=AXIS2_PLACEMENT_3D('',#603,#498,#499);
#407=AXIS2_PLACEMENT_3D('',#604,#500,#501);
#408=AXIS2_PLACEMENT_3D('',#606,#502,#503);
#409=AXIS2_PLACEMENT_3D('',#607,#504,#505);
#410=AXIS2_PLACEMENT_3D('',#609,#506,#507);
#411=AXIS2_PLACEMENT_3D('',#610,#508,#509);
#412=DIRECTION('',(0.,0.,1.));
#413=DIRECTION('',(1.,0.,0.));
#414=DIRECTION('',(0.,0.,-1.));
#415=DIRECTION('',(-1.,0.,0.));
#416=DIRECTION('',(0.,0.,-1.));
#417=DIRECTION('',(-1.,0.,0.));
#418=DIRECTION('',(0.,0.,-1.));
#419=DIRECTION('',(-1.,0.,0.));
#420=DIRECTION('',(0.,0.,-1.));
#421=DIRECTION('',(-1.,0.,0.));
#422=DIRECTION('',(0.,0.,-1.));
#423=DIRECTION('',(-1.,0.,0.));
#424=DIRECTION('',(0.,0.,-1.));
#425=DIRECTION('',(-1.,0.,0.));
#426=DIRECTION('',(0.,0.,1.));
#427=DIRECTION('',(1.,0.,5.52899912661931E-017));
#428=DIRECTION('',(0.,0.,-1.));
#429=DIRECTION('',(-1.,0.,0.));
#430=DIRECTION('',(0.,0.,-1.));
#431=DIRECTION('',(-1.,0.,0.));
#432=DIRECTION('',(0.,0.,-1.));
#433=DIRECTION('',(-1.,0.,0.));
#434=DIRECTION('',(0.,0.,1.));
#435=DIRECTION('',(1.,0.,0.));
#436=DIRECTION('',(0.,0.,-1.));
#437=DIRECTION('',(-1.,0.,0.));
#438=DIRECTION('',(0.,0.,-1.));
#439=DIRECTION('',(-1.,0.,0.));
#440=DIRECTION('',(0.,0.,-1.));
#441=DIRECTION('',(-1.,0.,0.));
#442=DIRECTION('',(0.,0.,-1.));
#443=DIRECTION('',(-1.,0.,0.));
#444=DIRECTION('',(0.,0.,-1.));
#445=DIRECTION('',(-1.,0.,0.));
#446=DIRECTION('',(0.,0.,-1.));
#447=DIRECTION('',(-1.,0.,0.));
#448=DIRECTION('',(0.,0.,-1.));
#449=DIRECTION('',(-1.,0.,0.));
#450=DIRECTION('',(0.,0.,-1.));
#451=DIRECTION('',(-1.,0.,0.));
#452=DIRECTION('',(0.,0.,-1.));
#453=DIRECTION('',(-1.,0.,0.));
#454=DIRECTION('',(0.,0.,1.));
#455=DIRECTION('',(1.,0.,0.));
#456=DIRECTION('',(0.,0.,-1.));
#457=DIRECTION('',(-1.,0.,0.));
#458=DIRECTION('',(0.,0.,-1.));
#459=DIRECTION('',(-1.,0.,0.));
#460=DIRECTION('',(0.,0.,-1.));
#461=DIRECTION('',(-1.,0.,0.));
#462=DIRECTION('',(0.,0.,1.));
#463=DIRECTION('',(1.,0.,6.89956637556649E-018));
#464=DIRECTION('',(0.,0.,-1.));
#465=DIRECTION('',(-1.,0.,0.));
#466=DIRECTION('',(0.,0.,-1.));
#467=DIRECTION('',(-1.,0.,0.));
#468=DIRECTION('',(0.,0.,-1.));
#469=DIRECTION('',(-1.,0.,0.));
#470=DIRECTION('',(0.,0.,-1.));
#471=DIRECTION('',(-1.,0.,-1.10830196788082E-017));
#472=DIRECTION('',(0.,0.,-1.));
#473=DIRECTION('',(-1.,0.,0.));
#474=DIRECTION('',(0.,0.,-1.));
#475=DIRECTION('',(-1.,0.,0.));
#476=DIRECTION('',(0.,0.,-1.));
#477=DIRECTION('',(-1.,0.,0.));
#478=DIRECTION('',(0.,0.,-1.));
#479=DIRECTION('',(-1.,0.,0.));
#480=DIRECTION('',(0.,0.,-1.));
#481=DIRECTION('',(-1.,0.,0.));
#482=DIRECTION('',(0.,0.,-1.));
#483=DIRECTION('',(-1.,0.,5.52762272653852E-017));
#484=DIRECTION('',(0.,0.,-1.));
#485=DIRECTION('',(-1.,0.,0.));
#486=DIRECTION('',(0.,0.,-1.));
#487=DIRECTION('',(-1.,0.,0.));
#488=DIRECTION('',(0.,0.,-1.));
#489=DIRECTION('',(-1.,0.,0.));
#490=DIRECTION('',(0.,0.,1.));
#491=DIRECTION('',(1.,0.,1.03653247581149E-017));
#492=DIRECTION('',(0.,0.,-1.));
#493=DIRECTION('',(-1.,0.,0.));
#494=DIRECTION('',(0.,0.,-1.));
#495=DIRECTION('',(-1.,0.,0.));
#496=DIRECTION('',(0.,0.,-1.));
#497=DIRECTION('',(-1.,0.,0.));
#498=DIRECTION('',(0.,0.,-1.));
#499=DIRECTION('',(-1.,0.,0.));
#500=DIRECTION('',(0.,0.,-1.));
#501=DIRECTION('',(-1.,0.,0.));
#502=DIRECTION('',(0.,0.,1.));
#503=DIRECTION('',(1.,0.,-2.7970536258223E-017));
#504=DIRECTION('',(0.,0.,-1.));
#505=DIRECTION('',(-1.,0.,0.));
#506=DIRECTION('',(0.,0.,-1.));
#507=DIRECTION('',(-1.,0.,0.));
#508=DIRECTION('',(0.,0.,1.));
#509=DIRECTION('',(1.,0.,0.));
#510=CARTESIAN_POINT('',(0.,0.,0.));
#511=CARTESIAN_POINT('',(0.,0.,-17.));
#512=CARTESIAN_POINT('',(-3.,0.,-17.));
#513=CARTESIAN_POINT('',(-2.8421709430404E-014,0.,-17.));
#514=CARTESIAN_POINT('',(0.,0.,-15.));
#515=CARTESIAN_POINT('',(-4.,0.,-15.));
#516=CARTESIAN_POINT('',(-3.,0.,-17.));
#517=CARTESIAN_POINT('',(-3.,6.00000000000001,-17.));
#518=CARTESIAN_POINT('',(3.,6.00000000000001,-17.));
#519=CARTESIAN_POINT('',(3.,0.,-17.));
#520=CARTESIAN_POINT('',(3.,-6.00000000000001,-17.));
#521=CARTESIAN_POINT('',(-3.,-6.00000000000001,-17.));
#522=CARTESIAN_POINT('',(-3.,0.,-17.));
#523=CARTESIAN_POINT('',(-3.64142982636372,0.,-16.5189276302272));
#524=CARTESIAN_POINT('',(-3.64142982636372,7.28285965272743,-16.5189276302272));
#525=CARTESIAN_POINT('',(3.64142982636372,7.28285965272743,-16.5189276302272));
#526=CARTESIAN_POINT('',(3.64142982636372,0.,-16.5189276302272));
#527=CARTESIAN_POINT('',(3.64142982636372,-7.28285965272743,-16.5189276302272));
#528=CARTESIAN_POINT('',(-3.64142982636372,-7.28285965272743,-16.5189276302272));
#529=CARTESIAN_POINT('',(-3.64142982636372,0.,-16.5189276302272));
#530=CARTESIAN_POINT('',(-4.,0.,-15.8017872829546));
#531=CARTESIAN_POINT('',(-4.,8.00000000000001,-15.8017872829546));
#532=CARTESIAN_POINT('',(4.,8.00000000000001,-15.8017872829546));
#533=CARTESIAN_POINT('',(4.,0.,-15.8017872829546));
#534=CARTESIAN_POINT('',(4.,-8.00000000000001,-15.8017872829546));
#535=CARTESIAN_POINT('',(-4.,-8.00000000000001,-15.8017872829546));
#536=CARTESIAN_POINT('',(-4.,0.,-15.8017872829546));
#537=CARTESIAN_POINT('',(-4.,0.,-15.));
#538=CARTESIAN_POINT('',(-4.,8.00000000000001,-15.));
#539=CARTESIAN_POINT('',(4.,8.00000000000001,-15.));
#540=CARTESIAN_POINT('',(4.,0.,-15.));
#541=CARTESIAN_POINT('',(4.,-8.00000000000001,-15.));
#542=CARTESIAN_POINT('',(-4.,-8.00000000000001,-15.));
#543=CARTESIAN_POINT('',(-4.,0.,-15.));
#544=CARTESIAN_POINT('',(0.,0.,-0.5));
#545=CARTESIAN_POINT('',(-4.,0.,-0.5));
#546=CARTESIAN_POINT('',(0.,0.,0.));
#547=CARTESIAN_POINT('',(0.,0.,0.));
#548=CARTESIAN_POINT('',(-4.5,0.,0.));
#549=CARTESIAN_POINT('',(0.,0.,-0.5));
#550=CARTESIAN_POINT('',(0.,0.,0.));
#551=CARTESIAN_POINT('',(-5.5,0.,0.));
#552=CARTESIAN_POINT('',(4.5,0.,0.));
#553=CARTESIAN_POINT('',(0.,0.,0.746410161513771));
#554=CARTESIAN_POINT('',(-5.7,0.,0.746410161513771));
#555=CARTESIAN_POINT('',(0.,0.,0.));
#556=CARTESIAN_POINT('',(0.,0.,5.));
#557=CARTESIAN_POINT('',(-5.7,0.,5.));
#558=CARTESIAN_POINT('',(0.,0.,0.));
#559=CARTESIAN_POINT('',(0.,0.,5.));
#560=CARTESIAN_POINT('',(-6.2,0.,5.));
#561=CARTESIAN_POINT('',(5.7,0.,5.));
#562=CARTESIAN_POINT('',(0.,0.,5.3));
#563=CARTESIAN_POINT('',(-6.5,0.,5.3));
#564=CARTESIAN_POINT('',(0.,0.,5.3));
#565=CARTESIAN_POINT('',(0.,0.,5.8));
#566=CARTESIAN_POINT('',(-6.5,0.,5.8));
#567=CARTESIAN_POINT('',(0.,0.,0.));
#568=CARTESIAN_POINT('',(0.,0.,5.8));
#569=CARTESIAN_POINT('',(-5.69999999999999,0.,5.8));
#570=CARTESIAN_POINT('',(6.5,0.,5.8));
#571=CARTESIAN_POINT('',(0.,0.,8.));
#572=CARTESIAN_POINT('',(-5.69999999999999,0.,8.));
#573=CARTESIAN_POINT('',(0.,0.,0.));
#574=CARTESIAN_POINT('',(0.,0.,8.8));
#575=CARTESIAN_POINT('',(-6.5,0.,8.8));
#576=CARTESIAN_POINT('',(0.,0.,8.));
#577=CARTESIAN_POINT('',(0.,0.,9.40000000000001));
#578=CARTESIAN_POINT('',(-6.5,0.,9.40000000000001));
#579=CARTESIAN_POINT('',(0.,0.,0.));
#580=CARTESIAN_POINT('',(0.,0.,9.80204337348276));
#581=CARTESIAN_POINT('',(-4.99233734943967,0.,9.80204337348276));
#582=CARTESIAN_POINT('',(0.,0.,9.40000000000001));
#583=CARTESIAN_POINT('',(0.,0.,10.768278313084));
#584=CARTESIAN_POINT('',(-4.25,0.,10.768278313084));
#585=CARTESIAN_POINT('',(0.,0.,10.768278313084));
#586=CARTESIAN_POINT('',(0.,0.,25.8));
#587=CARTESIAN_POINT('',(-4.25,0.,25.8));
#588=CARTESIAN_POINT('',(0.,0.,0.));
#589=CARTESIAN_POINT('',(0.,0.,25.9));
#590=CARTESIAN_POINT('',(-4.15,0.,25.9));
#591=CARTESIAN_POINT('',(0.,0.,25.8));
#592=CARTESIAN_POINT('',(0.,0.,26.1));
#593=CARTESIAN_POINT('',(-4.15,0.,26.1));
#594=CARTESIAN_POINT('',(0.,0.,0.));
#595=CARTESIAN_POINT('',(0.,0.,26.2));
#596=CARTESIAN_POINT('',(-4.25,0.,26.2));
#597=CARTESIAN_POINT('',(0.,0.,26.1));
#598=CARTESIAN_POINT('',(0.,0.,26.4226497308104));
#599=CARTESIAN_POINT('',(-4.25,0.,26.4226497308104));
#600=CARTESIAN_POINT('',(0.,0.,0.));
#601=CARTESIAN_POINT('',(0.,0.,26.8556624327026));
#602=CARTESIAN_POINT('',(-4.5,0.,26.8556624327026));
#603=CARTESIAN_POINT('',(0.,0.,26.4226497308104));
#604=CARTESIAN_POINT('',(0.,0.,27.));
#605=CARTESIAN_POINT('',(-4.75,0.,27.));
#606=CARTESIAN_POINT('',(0.,0.,26.8556624327026));
#607=CARTESIAN_POINT('',(0.,0.,28.));
#608=CARTESIAN_POINT('',(-4.75,0.,28.));
#609=CARTESIAN_POINT('',(0.,0.,0.));
#610=CARTESIAN_POINT('',(4.75,0.,28.));
#611=(
GEOMETRIC_REPRESENTATION_CONTEXT(3)
GLOBAL_UNCERTAINTY_ASSIGNED_CONTEXT((#612))
GLOBAL_UNIT_ASSIGNED_CONTEXT((#618,#614,#613))
REPRESENTATION_CONTEXT('N_01_080_0004_X__3D_Modell',
'TOP_LEVEL_ASSEMBLY_PART')
);
#612=UNCERTAINTY_MEASURE_WITH_UNIT(LENGTH_MEASURE(0.0254),#618,
'DISTANCE_ACCURACY_VALUE','Maximum Tolerance applied to model');
#613=(
NAMED_UNIT(*)
SI_UNIT($,.STERADIAN.)
SOLID_ANGLE_UNIT()
);
#614=(
CONVERSION_BASED_UNIT('DEGREE',#616)
NAMED_UNIT(#615)
PLANE_ANGLE_UNIT()
);
#615=DIMENSIONAL_EXPONENTS(0.,0.,0.,0.,0.,0.,0.);
#616=PLANE_ANGLE_MEASURE_WITH_UNIT(PLANE_ANGLE_MEASURE(0.0174532925),#617);
#617=(
NAMED_UNIT(*)
PLANE_ANGLE_UNIT()
SI_UNIT($,.RADIAN.)
);
#618=(
LENGTH_UNIT()
NAMED_UNIT(*)
SI_UNIT(.MILLI.,.METRE.)
);
ENDSEC;
END-ISO-10303-21;
