ISO-10303-21;
HEADER;
/* Generated by software containing ST-Developer
 * from STEP Tools, Inc. (www.steptools.com) 
 */
/* OPTION: using custom schema-name function */

FILE_DESCRIPTION(
/* description */ (''),
/* implementation_level */ '2;1');

FILE_NAME(
/* name */ '',
/* time_stamp */ '2015-06-01T08:23:29+02:00',
/* author */ (''),
/* organization */ (''),
/* preprocessor_version */ 'ST-DEVELOPER v11',
/* originating_system */ 'SIEMENS PLM Software NX 7.5',
/* authorisation */ '');

FILE_SCHEMA (('CONFIG_CONTROL_DESIGN'));
ENDSEC;

DATA;
#10=SHAPE_REPRESENTATION_RELATIONSHIP('None',
'relationship between N 01 080 0005 (1)_03-None and N 01 080 0005 (1)_0
3-None',#94,#11);
#11=ADVANCED_BREP_SHAPE_REPRESENTATION('N 01 080 0005 (1)_03-None',(#95),
#691);
#12=CC_DESIGN_APPROVAL(#24,(#82));
#13=CC_DESIGN_APPROVAL(#25,(#84));
#14=CC_DESIGN_APPROVAL(#26,(#31));
#15=APPROVAL_PERSON_ORGANIZATION(#69,#24,#18);
#16=APPROVAL_PERSON_ORGANIZATION(#70,#25,#19);
#17=APPROVAL_PERSON_ORGANIZATION(#71,#26,#20);
#18=APPROVAL_ROLE('approver');
#19=APPROVAL_ROLE('approver');
#20=APPROVAL_ROLE('approver');
#21=APPROVAL_DATE_TIME(#39,#24);
#22=APPROVAL_DATE_TIME(#40,#25);
#23=APPROVAL_DATE_TIME(#41,#26);
#24=APPROVAL(#27,' ');
#25=APPROVAL(#28,' ');
#26=APPROVAL(#29,' ');
#27=APPROVAL_STATUS('not_yet_approved');
#28=APPROVAL_STATUS('not_yet_approved');
#29=APPROVAL_STATUS('not_yet_approved');
#30=CC_DESIGN_SECURITY_CLASSIFICATION(#31,(#84));
#31=SECURITY_CLASSIFICATION(' ',' ',#32);
#32=SECURITY_CLASSIFICATION_LEVEL('confidential');
#33=CC_DESIGN_DATE_AND_TIME_ASSIGNMENT(#37,#35,(#82));
#34=CC_DESIGN_DATE_AND_TIME_ASSIGNMENT(#38,#36,(#31));
#35=DATE_TIME_ROLE('creation_date');
#36=DATE_TIME_ROLE('classification_date');
#37=DATE_AND_TIME(#52,#42);
#38=DATE_AND_TIME(#53,#43);
#39=DATE_AND_TIME(#54,#44);
#40=DATE_AND_TIME(#55,#45);
#41=DATE_AND_TIME(#56,#46);
#42=LOCAL_TIME(0,0,0.,#47);
#43=LOCAL_TIME(0,0,0.,#48);
#44=LOCAL_TIME(0,0,0.,#49);
#45=LOCAL_TIME(0,0,0.,#50);
#46=LOCAL_TIME(0,0,0.,#51);
#47=COORDINATED_UNIVERSAL_TIME_OFFSET(0,0,.BEHIND.);
#48=COORDINATED_UNIVERSAL_TIME_OFFSET(0,0,.BEHIND.);
#49=COORDINATED_UNIVERSAL_TIME_OFFSET(0,0,.BEHIND.);
#50=COORDINATED_UNIVERSAL_TIME_OFFSET(0,0,.BEHIND.);
#51=COORDINATED_UNIVERSAL_TIME_OFFSET(0,0,.BEHIND.);
#52=CALENDAR_DATE(0,1,1);
#53=CALENDAR_DATE(0,1,1);
#54=CALENDAR_DATE(0,1,1);
#55=CALENDAR_DATE(0,1,1);
#56=CALENDAR_DATE(0,1,1);
#57=CC_DESIGN_PERSON_AND_ORGANIZATION_ASSIGNMENT(#65,#61,(#82,#84));
#58=CC_DESIGN_PERSON_AND_ORGANIZATION_ASSIGNMENT(#66,#62,(#86));
#59=CC_DESIGN_PERSON_AND_ORGANIZATION_ASSIGNMENT(#67,#63,(#84));
#60=CC_DESIGN_PERSON_AND_ORGANIZATION_ASSIGNMENT(#68,#64,(#31));
#61=PERSON_AND_ORGANIZATION_ROLE('creator');
#62=PERSON_AND_ORGANIZATION_ROLE('design_owner');
#63=PERSON_AND_ORGANIZATION_ROLE('design_supplier');
#64=PERSON_AND_ORGANIZATION_ROLE('classification_officer');
#65=PERSON_AND_ORGANIZATION(#79,#72);
#66=PERSON_AND_ORGANIZATION(#79,#73);
#67=PERSON_AND_ORGANIZATION(#79,#74);
#68=PERSON_AND_ORGANIZATION(#79,#75);
#69=PERSON_AND_ORGANIZATION(#79,#76);
#70=PERSON_AND_ORGANIZATION(#79,#77);
#71=PERSON_AND_ORGANIZATION(#79,#78);
#72=ORGANIZATION(' ',' ',' ');
#73=ORGANIZATION(' ',' ',' ');
#74=ORGANIZATION(' ',' ',' ');
#75=ORGANIZATION(' ',' ',' ');
#76=ORGANIZATION(' ',' ',' ');
#77=ORGANIZATION(' ',' ',' ');
#78=ORGANIZATION(' ',' ',' ');
#79=PERSON(' ',' ',' ',(' '),$,$);
#80=SHAPE_DEFINITION_REPRESENTATION(#81,#94);
#81=PRODUCT_DEFINITION_SHAPE('','',#82);
#82=PRODUCT_DEFINITION(' ','',#84,#83);
#83=DESIGN_CONTEXT('',#93,'design');
#84=PRODUCT_DEFINITION_FORMATION_WITH_SPECIFIED_SOURCE(' ',' ',#86,.NOT_KNOWN.);
#85=PRODUCT_RELATED_PRODUCT_CATEGORY('detail','',(#86));
#86=PRODUCT('N 01 080 0005 (1)_03','N 01 080 0005 (1)_03',' ',(#91));
#87=PRODUCT_CATEGORY_RELATIONSHIP(' ',' ',#89,#90);
#88=PRODUCT_CATEGORY_RELATIONSHIP('','',#90,#85);
#89=PRODUCT_CATEGORY('part',' ');
#90=PRODUCT_CATEGORY(' ','');
#91=MECHANICAL_CONTEXT(' ',#93,'mechanical');
#92=APPLICATION_PROTOCOL_DEFINITION('international standard',
'config_control_design',1994,#93);
#93=APPLICATION_CONTEXT(
'configuration controlled 3D designs of mechanical parts and assemblies');
#94=SHAPE_REPRESENTATION('N 01 080 0005 (1)_03-None',(#407),#691);
#95=MANIFOLD_SOLID_BREP('',#96);
#96=CLOSED_SHELL('',(#175,#176,#177,#178,#179,#180,#181,#182,#183,#184,#185,
#186,#187,#188,#189,#190,#191,#192,#193,#194,#195,#196,#197,#198,#199,#200,
#201,#202,#203));
#97=TOROIDAL_SURFACE('',#424,6.2,0.3);
#98=TOROIDAL_SURFACE('',#438,6.,1.);
#99=TOROIDAL_SURFACE('',#458,5.5,0.500000000000001);
#100=CONICAL_SURFACE('',#414,4.,45.);
#101=CONICAL_SURFACE('',#418,5.5,15.0000000000001);
#102=CONICAL_SURFACE('',#432,5.7,45.);
#103=CONICAL_SURFACE('',#436,6.5,68.1985905136482);
#104=CONICAL_SURFACE('',#442,5.,45.000000000001);
#105=CONICAL_SURFACE('',#446,4.9,44.999999999999);
#106=CONICAL_SURFACE('',#450,5.,44.999999999998);
#107=CONICAL_SURFACE('',#454,4.9,44.999999999999);
#108=CONICAL_SURFACE('',#460,5.25,59.9999999999994);
#109=CYLINDRICAL_SURFACE('',#412,4.);
#110=CYLINDRICAL_SURFACE('',#420,5.69999999999999);
#111=CYLINDRICAL_SURFACE('',#426,6.5);
#112=CYLINDRICAL_SURFACE('',#430,5.7);
#113=CYLINDRICAL_SURFACE('',#434,6.5);
#114=CYLINDRICAL_SURFACE('',#440,5.);
#115=CYLINDRICAL_SURFACE('',#444,4.9);
#116=CYLINDRICAL_SURFACE('',#448,5.);
#117=CYLINDRICAL_SURFACE('',#452,4.9);
#118=CYLINDRICAL_SURFACE('',#456,5.);
#119=CYLINDRICAL_SURFACE('',#462,5.5);
#120=(
BOUNDED_SURFACE()
B_SPLINE_SURFACE(3,3,((#584,#585,#586,#587,#588,#589,#590),(#591,#592,#593,
#594,#595,#596,#597),(#598,#599,#600,#601,#602,#603,#604),(#605,#606,#607,
#608,#609,#610,#611)),.UNSPECIFIED.,.F.,.T.,.F.)
B_SPLINE_SURFACE_WITH_KNOTS((4,4),(1,3,3,3,1),(0.,1.),(-0.5,0.,0.5,1.,1.5),
 .UNSPECIFIED.)
GEOMETRIC_REPRESENTATION_ITEM()
RATIONAL_B_SPLINE_SURFACE(((1.,0.333333333333333,0.333333333333333,1.,0.333333333333333,
0.333333333333333,1.),(0.929618127333277,0.309872709111092,0.309872709111092,
0.929618127333277,0.309872709111092,0.309872709111092,0.929618127333277),
(0.929618127333277,0.309872709111092,0.309872709111092,0.929618127333277,
0.309872709111092,0.309872709111092,0.929618127333277),(1.,0.333333333333333,
0.333333333333333,1.,0.333333333333333,0.333333333333333,1.)))
REPRESENTATION_ITEM('')
SURFACE()
);
#121=FACE_BOUND('',#212,.T.);
#122=FACE_BOUND('',#213,.T.);
#123=FACE_BOUND('',#214,.T.);
#124=FACE_BOUND('',#215,.T.);
#125=FACE_BOUND('',#216,.T.);
#126=FACE_BOUND('',#217,.T.);
#127=FACE_BOUND('',#218,.T.);
#128=FACE_BOUND('',#219,.T.);
#129=FACE_BOUND('',#220,.T.);
#130=FACE_BOUND('',#221,.T.);
#131=FACE_BOUND('',#222,.T.);
#132=FACE_BOUND('',#223,.T.);
#133=FACE_BOUND('',#224,.T.);
#134=FACE_BOUND('',#225,.T.);
#135=FACE_BOUND('',#226,.T.);
#136=FACE_BOUND('',#227,.T.);
#137=FACE_BOUND('',#228,.T.);
#138=FACE_BOUND('',#229,.T.);
#139=FACE_BOUND('',#230,.T.);
#140=FACE_BOUND('',#231,.T.);
#141=FACE_BOUND('',#232,.T.);
#142=FACE_BOUND('',#233,.T.);
#143=FACE_BOUND('',#234,.T.);
#144=FACE_BOUND('',#235,.T.);
#145=FACE_BOUND('',#236,.T.);
#146=FACE_BOUND('',#237,.T.);
#147=FACE_BOUND('',#238,.T.);
#148=FACE_BOUND('',#239,.T.);
#149=FACE_BOUND('',#240,.T.);
#150=FACE_BOUND('',#241,.T.);
#151=FACE_BOUND('',#242,.T.);
#152=FACE_BOUND('',#243,.T.);
#153=FACE_BOUND('',#244,.T.);
#154=FACE_BOUND('',#245,.T.);
#155=FACE_BOUND('',#246,.T.);
#156=FACE_BOUND('',#247,.T.);
#157=FACE_BOUND('',#248,.T.);
#158=FACE_BOUND('',#249,.T.);
#159=FACE_BOUND('',#250,.T.);
#160=FACE_BOUND('',#251,.T.);
#161=FACE_BOUND('',#252,.T.);
#162=FACE_BOUND('',#253,.T.);
#163=FACE_BOUND('',#254,.T.);
#164=FACE_BOUND('',#255,.T.);
#165=FACE_BOUND('',#256,.T.);
#166=FACE_BOUND('',#257,.T.);
#167=FACE_BOUND('',#258,.T.);
#168=FACE_BOUND('',#259,.T.);
#169=FACE_BOUND('',#260,.T.);
#170=FACE_BOUND('',#261,.T.);
#171=FACE_BOUND('',#262,.T.);
#172=FACE_BOUND('',#263,.T.);
#173=FACE_BOUND('',#264,.T.);
#174=FACE_BOUND('',#265,.T.);
#175=ADVANCED_FACE('',(#209),#204,.T.);
#176=ADVANCED_FACE('',(#121,#122),#120,.T.);
#177=ADVANCED_FACE('',(#123,#124),#109,.T.);
#178=ADVANCED_FACE('',(#125,#126),#100,.T.);
#179=ADVANCED_FACE('',(#127,#128),#205,.T.);
#180=ADVANCED_FACE('',(#129,#130),#101,.T.);
#181=ADVANCED_FACE('',(#131,#132),#110,.T.);
#182=ADVANCED_FACE('',(#133,#134),#206,.T.);
#183=ADVANCED_FACE('',(#135,#136),#97,.T.);
#184=ADVANCED_FACE('',(#137,#138),#111,.T.);
#185=ADVANCED_FACE('',(#139,#140),#207,.T.);
#186=ADVANCED_FACE('',(#141,#142),#112,.T.);
#187=ADVANCED_FACE('',(#143,#144),#102,.T.);
#188=ADVANCED_FACE('',(#145,#146),#113,.T.);
#189=ADVANCED_FACE('',(#147,#148),#103,.T.);
#190=ADVANCED_FACE('',(#149,#150),#98,.F.);
#191=ADVANCED_FACE('',(#151,#152),#114,.T.);
#192=ADVANCED_FACE('',(#153,#154),#104,.T.);
#193=ADVANCED_FACE('',(#155,#156),#115,.T.);
#194=ADVANCED_FACE('',(#157,#158),#105,.T.);
#195=ADVANCED_FACE('',(#159,#160),#116,.T.);
#196=ADVANCED_FACE('',(#161,#162),#106,.T.);
#197=ADVANCED_FACE('',(#163,#164),#117,.T.);
#198=ADVANCED_FACE('',(#165,#166),#107,.T.);
#199=ADVANCED_FACE('',(#167,#168),#118,.T.);
#200=ADVANCED_FACE('',(#169,#170),#99,.F.);
#201=ADVANCED_FACE('',(#171,#172),#108,.T.);
#202=ADVANCED_FACE('',(#173,#174),#119,.T.);
#203=ADVANCED_FACE('',(#210),#208,.T.);
#204=PLANE('',#409);
#205=PLANE('',#416);
#206=PLANE('',#422);
#207=PLANE('',#428);
#208=PLANE('',#463);
#209=FACE_OUTER_BOUND('',#211,.T.);
#210=FACE_OUTER_BOUND('',#266,.T.);
#211=EDGE_LOOP('',(#267));
#212=EDGE_LOOP('',(#268));
#213=EDGE_LOOP('',(#269));
#214=EDGE_LOOP('',(#270));
#215=EDGE_LOOP('',(#271));
#216=EDGE_LOOP('',(#272));
#217=EDGE_LOOP('',(#273));
#218=EDGE_LOOP('',(#274));
#219=EDGE_LOOP('',(#275));
#220=EDGE_LOOP('',(#276));
#221=EDGE_LOOP('',(#277));
#222=EDGE_LOOP('',(#278));
#223=EDGE_LOOP('',(#279));
#224=EDGE_LOOP('',(#280));
#225=EDGE_LOOP('',(#281));
#226=EDGE_LOOP('',(#282));
#227=EDGE_LOOP('',(#283));
#228=EDGE_LOOP('',(#284));
#229=EDGE_LOOP('',(#285));
#230=EDGE_LOOP('',(#286));
#231=EDGE_LOOP('',(#287));
#232=EDGE_LOOP('',(#288));
#233=EDGE_LOOP('',(#289));
#234=EDGE_LOOP('',(#290));
#235=EDGE_LOOP('',(#291));
#236=EDGE_LOOP('',(#292));
#237=EDGE_LOOP('',(#293));
#238=EDGE_LOOP('',(#294));
#239=EDGE_LOOP('',(#295));
#240=EDGE_LOOP('',(#296));
#241=EDGE_LOOP('',(#297));
#242=EDGE_LOOP('',(#298));
#243=EDGE_LOOP('',(#299));
#244=EDGE_LOOP('',(#300));
#245=EDGE_LOOP('',(#301));
#246=EDGE_LOOP('',(#302));
#247=EDGE_LOOP('',(#303));
#248=EDGE_LOOP('',(#304));
#249=EDGE_LOOP('',(#305));
#250=EDGE_LOOP('',(#306));
#251=EDGE_LOOP('',(#307));
#252=EDGE_LOOP('',(#308));
#253=EDGE_LOOP('',(#309));
#254=EDGE_LOOP('',(#310));
#255=EDGE_LOOP('',(#311));
#256=EDGE_LOOP('',(#312));
#257=EDGE_LOOP('',(#313));
#258=EDGE_LOOP('',(#314));
#259=EDGE_LOOP('',(#315));
#260=EDGE_LOOP('',(#316));
#261=EDGE_LOOP('',(#317));
#262=EDGE_LOOP('',(#318));
#263=EDGE_LOOP('',(#319));
#264=EDGE_LOOP('',(#320));
#265=EDGE_LOOP('',(#321));
#266=EDGE_LOOP('',(#322));
#267=ORIENTED_EDGE('',*,*,#351,.T.);
#268=ORIENTED_EDGE('',*,*,#352,.T.);
#269=ORIENTED_EDGE('',*,*,#351,.F.);
#270=ORIENTED_EDGE('',*,*,#353,.T.);
#271=ORIENTED_EDGE('',*,*,#352,.F.);
#272=ORIENTED_EDGE('',*,*,#354,.T.);
#273=ORIENTED_EDGE('',*,*,#353,.F.);
#274=ORIENTED_EDGE('',*,*,#355,.T.);
#275=ORIENTED_EDGE('',*,*,#354,.F.);
#276=ORIENTED_EDGE('',*,*,#356,.T.);
#277=ORIENTED_EDGE('',*,*,#355,.F.);
#278=ORIENTED_EDGE('',*,*,#357,.T.);
#279=ORIENTED_EDGE('',*,*,#356,.F.);
#280=ORIENTED_EDGE('',*,*,#358,.T.);
#281=ORIENTED_EDGE('',*,*,#357,.F.);
#282=ORIENTED_EDGE('',*,*,#359,.T.);
#283=ORIENTED_EDGE('',*,*,#358,.F.);
#284=ORIENTED_EDGE('',*,*,#360,.T.);
#285=ORIENTED_EDGE('',*,*,#359,.F.);
#286=ORIENTED_EDGE('',*,*,#361,.T.);
#287=ORIENTED_EDGE('',*,*,#360,.F.);
#288=ORIENTED_EDGE('',*,*,#362,.T.);
#289=ORIENTED_EDGE('',*,*,#361,.F.);
#290=ORIENTED_EDGE('',*,*,#363,.T.);
#291=ORIENTED_EDGE('',*,*,#362,.F.);
#292=ORIENTED_EDGE('',*,*,#364,.T.);
#293=ORIENTED_EDGE('',*,*,#363,.F.);
#294=ORIENTED_EDGE('',*,*,#365,.T.);
#295=ORIENTED_EDGE('',*,*,#364,.F.);
#296=ORIENTED_EDGE('',*,*,#366,.T.);
#297=ORIENTED_EDGE('',*,*,#365,.F.);
#298=ORIENTED_EDGE('',*,*,#367,.T.);
#299=ORIENTED_EDGE('',*,*,#366,.F.);
#300=ORIENTED_EDGE('',*,*,#368,.T.);
#301=ORIENTED_EDGE('',*,*,#367,.F.);
#302=ORIENTED_EDGE('',*,*,#369,.T.);
#303=ORIENTED_EDGE('',*,*,#368,.F.);
#304=ORIENTED_EDGE('',*,*,#370,.T.);
#305=ORIENTED_EDGE('',*,*,#369,.F.);
#306=ORIENTED_EDGE('',*,*,#371,.T.);
#307=ORIENTED_EDGE('',*,*,#370,.F.);
#308=ORIENTED_EDGE('',*,*,#372,.T.);
#309=ORIENTED_EDGE('',*,*,#371,.F.);
#310=ORIENTED_EDGE('',*,*,#373,.T.);
#311=ORIENTED_EDGE('',*,*,#372,.F.);
#312=ORIENTED_EDGE('',*,*,#374,.T.);
#313=ORIENTED_EDGE('',*,*,#373,.F.);
#314=ORIENTED_EDGE('',*,*,#375,.T.);
#315=ORIENTED_EDGE('',*,*,#374,.F.);
#316=ORIENTED_EDGE('',*,*,#376,.T.);
#317=ORIENTED_EDGE('',*,*,#375,.F.);
#318=ORIENTED_EDGE('',*,*,#377,.T.);
#319=ORIENTED_EDGE('',*,*,#376,.F.);
#320=ORIENTED_EDGE('',*,*,#378,.T.);
#321=ORIENTED_EDGE('',*,*,#377,.F.);
#322=ORIENTED_EDGE('',*,*,#378,.F.);
#323=VERTEX_POINT('',#580);
#324=VERTEX_POINT('',#583);
#325=VERTEX_POINT('',#613);
#326=VERTEX_POINT('',#616);
#327=VERTEX_POINT('',#619);
#328=VERTEX_POINT('',#622);
#329=VERTEX_POINT('',#625);
#330=VERTEX_POINT('',#628);
#331=VERTEX_POINT('',#631);
#332=VERTEX_POINT('',#634);
#333=VERTEX_POINT('',#637);
#334=VERTEX_POINT('',#640);
#335=VERTEX_POINT('',#643);
#336=VERTEX_POINT('',#646);
#337=VERTEX_POINT('',#649);
#338=VERTEX_POINT('',#652);
#339=VERTEX_POINT('',#655);
#340=VERTEX_POINT('',#658);
#341=VERTEX_POINT('',#661);
#342=VERTEX_POINT('',#664);
#343=VERTEX_POINT('',#667);
#344=VERTEX_POINT('',#670);
#345=VERTEX_POINT('',#673);
#346=VERTEX_POINT('',#676);
#347=VERTEX_POINT('',#679);
#348=VERTEX_POINT('',#682);
#349=VERTEX_POINT('',#685);
#350=VERTEX_POINT('',#688);
#351=EDGE_CURVE('',#323,#323,#379,.T.);
#352=EDGE_CURVE('',#324,#324,#380,.T.);
#353=EDGE_CURVE('',#325,#325,#381,.T.);
#354=EDGE_CURVE('',#326,#326,#382,.T.);
#355=EDGE_CURVE('',#327,#327,#383,.T.);
#356=EDGE_CURVE('',#328,#328,#384,.T.);
#357=EDGE_CURVE('',#329,#329,#385,.T.);
#358=EDGE_CURVE('',#330,#330,#386,.T.);
#359=EDGE_CURVE('',#331,#331,#387,.T.);
#360=EDGE_CURVE('',#332,#332,#388,.T.);
#361=EDGE_CURVE('',#333,#333,#389,.T.);
#362=EDGE_CURVE('',#334,#334,#390,.T.);
#363=EDGE_CURVE('',#335,#335,#391,.T.);
#364=EDGE_CURVE('',#336,#336,#392,.T.);
#365=EDGE_CURVE('',#337,#337,#393,.T.);
#366=EDGE_CURVE('',#338,#338,#394,.T.);
#367=EDGE_CURVE('',#339,#339,#395,.T.);
#368=EDGE_CURVE('',#340,#340,#396,.T.);
#369=EDGE_CURVE('',#341,#341,#397,.T.);
#370=EDGE_CURVE('',#342,#342,#398,.T.);
#371=EDGE_CURVE('',#343,#343,#399,.T.);
#372=EDGE_CURVE('',#344,#344,#400,.T.);
#373=EDGE_CURVE('',#345,#345,#401,.T.);
#374=EDGE_CURVE('',#346,#346,#402,.T.);
#375=EDGE_CURVE('',#347,#347,#403,.T.);
#376=EDGE_CURVE('',#348,#348,#404,.T.);
#377=EDGE_CURVE('',#349,#349,#405,.T.);
#378=EDGE_CURVE('',#350,#350,#406,.T.);
#379=CIRCLE('',#408,3.);
#380=CIRCLE('',#410,4.);
#381=CIRCLE('',#411,4.);
#382=CIRCLE('',#413,4.5);
#383=CIRCLE('',#415,5.5);
#384=CIRCLE('',#417,5.69999999999999);
#385=CIRCLE('',#419,5.7);
#386=CIRCLE('',#421,6.2);
#387=CIRCLE('',#423,6.5);
#388=CIRCLE('',#425,6.5);
#389=CIRCLE('',#427,5.7);
#390=CIRCLE('',#429,5.7);
#391=CIRCLE('',#431,6.5);
#392=CIRCLE('',#433,6.5);
#393=CIRCLE('',#435,5.62860932364589);
#394=CIRCLE('',#437,5.);
#395=CIRCLE('',#439,5.);
#396=CIRCLE('',#441,4.9);
#397=CIRCLE('',#443,4.9);
#398=CIRCLE('',#445,5.);
#399=CIRCLE('',#447,5.);
#400=CIRCLE('',#449,4.9);
#401=CIRCLE('',#451,4.9);
#402=CIRCLE('',#453,5.);
#403=CIRCLE('',#455,5.);
#404=CIRCLE('',#457,5.25);
#405=CIRCLE('',#459,5.5);
#406=CIRCLE('',#461,5.5);
#407=AXIS2_PLACEMENT_3D('',#578,#464,#465);
#408=AXIS2_PLACEMENT_3D('',#579,#466,#467);
#409=AXIS2_PLACEMENT_3D('',#581,#468,#469);
#410=AXIS2_PLACEMENT_3D('',#582,#470,#471);
#411=AXIS2_PLACEMENT_3D('',#612,#472,#473);
#412=AXIS2_PLACEMENT_3D('',#614,#474,#475);
#413=AXIS2_PLACEMENT_3D('',#615,#476,#477);
#414=AXIS2_PLACEMENT_3D('',#617,#478,#479);
#415=AXIS2_PLACEMENT_3D('',#618,#480,#481);
#416=AXIS2_PLACEMENT_3D('',#620,#482,#483);
#417=AXIS2_PLACEMENT_3D('',#621,#484,#485);
#418=AXIS2_PLACEMENT_3D('',#623,#486,#487);
#419=AXIS2_PLACEMENT_3D('',#624,#488,#489);
#420=AXIS2_PLACEMENT_3D('',#626,#490,#491);
#421=AXIS2_PLACEMENT_3D('',#627,#492,#493);
#422=AXIS2_PLACEMENT_3D('',#629,#494,#495);
#423=AXIS2_PLACEMENT_3D('',#630,#496,#497);
#424=AXIS2_PLACEMENT_3D('',#632,#498,#499);
#425=AXIS2_PLACEMENT_3D('',#633,#500,#501);
#426=AXIS2_PLACEMENT_3D('',#635,#502,#503);
#427=AXIS2_PLACEMENT_3D('',#636,#504,#505);
#428=AXIS2_PLACEMENT_3D('',#638,#506,#507);
#429=AXIS2_PLACEMENT_3D('',#639,#508,#509);
#430=AXIS2_PLACEMENT_3D('',#641,#510,#511);
#431=AXIS2_PLACEMENT_3D('',#642,#512,#513);
#432=AXIS2_PLACEMENT_3D('',#644,#514,#515);
#433=AXIS2_PLACEMENT_3D('',#645,#516,#517);
#434=AXIS2_PLACEMENT_3D('',#647,#518,#519);
#435=AXIS2_PLACEMENT_3D('',#648,#520,#521);
#436=AXIS2_PLACEMENT_3D('',#650,#522,#523);
#437=AXIS2_PLACEMENT_3D('',#651,#524,#525);
#438=AXIS2_PLACEMENT_3D('',#653,#526,#527);
#439=AXIS2_PLACEMENT_3D('',#654,#528,#529);
#440=AXIS2_PLACEMENT_3D('',#656,#530,#531);
#441=AXIS2_PLACEMENT_3D('',#657,#532,#533);
#442=AXIS2_PLACEMENT_3D('',#659,#534,#535);
#443=AXIS2_PLACEMENT_3D('',#660,#536,#537);
#444=AXIS2_PLACEMENT_3D('',#662,#538,#539);
#445=AXIS2_PLACEMENT_3D('',#663,#540,#541);
#446=AXIS2_PLACEMENT_3D('',#665,#542,#543);
#447=AXIS2_PLACEMENT_3D('',#666,#544,#545);
#448=AXIS2_PLACEMENT_3D('',#668,#546,#547);
#449=AXIS2_PLACEMENT_3D('',#669,#548,#549);
#450=AXIS2_PLACEMENT_3D('',#671,#550,#551);
#451=AXIS2_PLACEMENT_3D('',#672,#552,#553);
#452=AXIS2_PLACEMENT_3D('',#674,#554,#555);
#453=AXIS2_PLACEMENT_3D('',#675,#556,#557);
#454=AXIS2_PLACEMENT_3D('',#677,#558,#559);
#455=AXIS2_PLACEMENT_3D('',#678,#560,#561);
#456=AXIS2_PLACEMENT_3D('',#680,#562,#563);
#457=AXIS2_PLACEMENT_3D('',#681,#564,#565);
#458=AXIS2_PLACEMENT_3D('',#683,#566,#567);
#459=AXIS2_PLACEMENT_3D('',#684,#568,#569);
#460=AXIS2_PLACEMENT_3D('',#686,#570,#571);
#461=AXIS2_PLACEMENT_3D('',#687,#572,#573);
#462=AXIS2_PLACEMENT_3D('',#689,#574,#575);
#463=AXIS2_PLACEMENT_3D('',#690,#576,#577);
#464=DIRECTION('',(0.,0.,1.));
#465=DIRECTION('',(1.,0.,0.));
#466=DIRECTION('',(0.,0.,-1.));
#467=DIRECTION('',(-1.,0.,0.));
#468=DIRECTION('',(0.,0.,-1.));
#469=DIRECTION('',(-1.,0.,0.));
#470=DIRECTION('',(0.,0.,-1.));
#471=DIRECTION('',(-1.,0.,0.));
#472=DIRECTION('',(0.,0.,-1.));
#473=DIRECTION('',(-1.,0.,0.));
#474=DIRECTION('',(0.,0.,-1.));
#475=DIRECTION('',(-1.,0.,0.));
#476=DIRECTION('',(0.,0.,-1.));
#477=DIRECTION('',(-1.,0.,0.));
#478=DIRECTION('',(0.,0.,1.));
#479=DIRECTION('',(1.,0.,5.52899912661931E-017));
#480=DIRECTION('',(0.,0.,-1.));
#481=DIRECTION('',(-1.,0.,0.));
#482=DIRECTION('',(0.,0.,-1.));
#483=DIRECTION('',(-1.,0.,0.));
#484=DIRECTION('',(0.,0.,-1.));
#485=DIRECTION('',(-1.,0.,0.));
#486=DIRECTION('',(0.,0.,1.));
#487=DIRECTION('',(1.,0.,0.));
#488=DIRECTION('',(0.,0.,-1.));
#489=DIRECTION('',(-1.,0.,0.));
#490=DIRECTION('',(0.,0.,-1.));
#491=DIRECTION('',(-1.,0.,0.));
#492=DIRECTION('',(0.,0.,-1.));
#493=DIRECTION('',(-1.,0.,0.));
#494=DIRECTION('',(0.,0.,-1.));
#495=DIRECTION('',(-1.,0.,0.));
#496=DIRECTION('',(0.,0.,-1.));
#497=DIRECTION('',(-1.,0.,0.));
#498=DIRECTION('',(0.,0.,-1.));
#499=DIRECTION('',(-1.,0.,0.));
#500=DIRECTION('',(0.,0.,-1.));
#501=DIRECTION('',(-1.,0.,0.));
#502=DIRECTION('',(0.,0.,-1.));
#503=DIRECTION('',(-1.,0.,0.));
#504=DIRECTION('',(0.,0.,-1.));
#505=DIRECTION('',(-1.,0.,0.));
#506=DIRECTION('',(0.,0.,1.));
#507=DIRECTION('',(1.,0.,0.));
#508=DIRECTION('',(0.,0.,-1.));
#509=DIRECTION('',(-1.,0.,0.));
#510=DIRECTION('',(0.,0.,-1.));
#511=DIRECTION('',(-1.,0.,0.));
#512=DIRECTION('',(0.,0.,-1.));
#513=DIRECTION('',(-1.,0.,0.));
#514=DIRECTION('',(0.,0.,1.));
#515=DIRECTION('',(1.,0.,6.8995663755665E-018));
#516=DIRECTION('',(0.,0.,-1.));
#517=DIRECTION('',(-1.,0.,0.));
#518=DIRECTION('',(0.,0.,-1.));
#519=DIRECTION('',(-1.,0.,0.));
#520=DIRECTION('',(0.,0.,-1.));
#521=DIRECTION('',(-1.,0.,0.));
#522=DIRECTION('',(0.,0.,-1.));
#523=DIRECTION('',(-1.,0.,-1.38417991300763E-017));
#524=DIRECTION('',(0.,0.,-1.));
#525=DIRECTION('',(-1.,0.,0.));
#526=DIRECTION('',(0.,0.,-1.));
#527=DIRECTION('',(-1.,0.,0.));
#528=DIRECTION('',(0.,0.,-1.));
#529=DIRECTION('',(-1.,0.,0.));
#530=DIRECTION('',(0.,0.,-1.));
#531=DIRECTION('',(-1.,0.,0.));
#532=DIRECTION('',(0.,0.,-1.));
#533=DIRECTION('',(-1.,0.,0.));
#534=DIRECTION('',(0.,0.,-1.));
#535=DIRECTION('',(-1.,0.,4.14262322621313E-017));
#536=DIRECTION('',(0.,0.,-1.));
#537=DIRECTION('',(-1.,0.,0.));
#538=DIRECTION('',(0.,0.,-1.));
#539=DIRECTION('',(-1.,0.,0.));
#540=DIRECTION('',(0.,0.,-1.));
#541=DIRECTION('',(-1.,0.,0.));
#542=DIRECTION('',(0.,0.,1.));
#543=DIRECTION('',(1.,0.,-1.00123357156591E-016));
#544=DIRECTION('',(0.,0.,-1.));
#545=DIRECTION('',(-1.,0.,0.));
#546=DIRECTION('',(0.,0.,-1.));
#547=DIRECTION('',(-1.,0.,0.));
#548=DIRECTION('',(0.,0.,-1.));
#549=DIRECTION('',(-1.,0.,0.));
#550=DIRECTION('',(0.,0.,-1.));
#551=DIRECTION('',(-1.,0.,5.17827903276695E-017));
#552=DIRECTION('',(0.,0.,-1.));
#553=DIRECTION('',(-1.,0.,0.));
#554=DIRECTION('',(0.,0.,-1.));
#555=DIRECTION('',(-1.,0.,0.));
#556=DIRECTION('',(0.,0.,-1.));
#557=DIRECTION('',(-1.,0.,0.));
#558=DIRECTION('',(0.,0.,1.));
#559=DIRECTION('',(1.,0.,1.03575886713715E-017));
#560=DIRECTION('',(0.,0.,-1.));
#561=DIRECTION('',(-1.,0.,0.));
#562=DIRECTION('',(0.,0.,-1.));
#563=DIRECTION('',(-1.,0.,0.));
#564=DIRECTION('',(0.,0.,-1.));
#565=DIRECTION('',(-1.,0.,0.));
#566=DIRECTION('',(0.,0.,-1.));
#567=DIRECTION('',(-1.,0.,0.));
#568=DIRECTION('',(0.,0.,-1.));
#569=DIRECTION('',(-1.,0.,0.));
#570=DIRECTION('',(0.,0.,1.));
#571=DIRECTION('',(1.,0.,-2.79584612611343E-017));
#572=DIRECTION('',(0.,0.,-1.));
#573=DIRECTION('',(-1.,0.,0.));
#574=DIRECTION('',(0.,0.,-1.));
#575=DIRECTION('',(-1.,0.,0.));
#576=DIRECTION('',(0.,0.,1.));
#577=DIRECTION('',(1.,0.,0.));
#578=CARTESIAN_POINT('',(0.,0.,0.));
#579=CARTESIAN_POINT('',(0.,0.,-17.));
#580=CARTESIAN_POINT('',(-3.,0.,-17.));
#581=CARTESIAN_POINT('',(-2.8421709430404E-014,0.,-17.));
#582=CARTESIAN_POINT('',(0.,0.,-15.));
#583=CARTESIAN_POINT('',(-4.,0.,-15.));
#584=CARTESIAN_POINT('',(-3.,0.,-17.));
#585=CARTESIAN_POINT('',(-3.,6.00000000000001,-17.));
#586=CARTESIAN_POINT('',(3.,6.00000000000001,-17.));
#587=CARTESIAN_POINT('',(3.,0.,-17.));
#588=CARTESIAN_POINT('',(3.,-6.00000000000001,-17.));
#589=CARTESIAN_POINT('',(-3.,-6.00000000000001,-17.));
#590=CARTESIAN_POINT('',(-3.,0.,-17.));
#591=CARTESIAN_POINT('',(-3.64142982636372,0.,-16.5189276302272));
#592=CARTESIAN_POINT('',(-3.64142982636372,7.28285965272743,-16.5189276302272));
#593=CARTESIAN_POINT('',(3.64142982636372,7.28285965272743,-16.5189276302272));
#594=CARTESIAN_POINT('',(3.64142982636372,0.,-16.5189276302272));
#595=CARTESIAN_POINT('',(3.64142982636372,-7.28285965272743,-16.5189276302272));
#596=CARTESIAN_POINT('',(-3.64142982636372,-7.28285965272743,-16.5189276302272));
#597=CARTESIAN_POINT('',(-3.64142982636372,0.,-16.5189276302272));
#598=CARTESIAN_POINT('',(-4.,0.,-15.8017872829546));
#599=CARTESIAN_POINT('',(-4.,8.00000000000001,-15.8017872829546));
#600=CARTESIAN_POINT('',(4.,8.00000000000001,-15.8017872829546));
#601=CARTESIAN_POINT('',(4.,0.,-15.8017872829546));
#602=CARTESIAN_POINT('',(4.,-8.00000000000001,-15.8017872829546));
#603=CARTESIAN_POINT('',(-4.,-8.00000000000001,-15.8017872829546));
#604=CARTESIAN_POINT('',(-4.,0.,-15.8017872829546));
#605=CARTESIAN_POINT('',(-4.,0.,-15.));
#606=CARTESIAN_POINT('',(-4.,8.00000000000001,-15.));
#607=CARTESIAN_POINT('',(4.,8.00000000000001,-15.));
#608=CARTESIAN_POINT('',(4.,0.,-15.));
#609=CARTESIAN_POINT('',(4.,-8.00000000000001,-15.));
#610=CARTESIAN_POINT('',(-4.,-8.00000000000001,-15.));
#611=CARTESIAN_POINT('',(-4.,0.,-15.));
#612=CARTESIAN_POINT('',(0.,0.,-0.5));
#613=CARTESIAN_POINT('',(-4.,0.,-0.5));
#614=CARTESIAN_POINT('',(0.,0.,0.));
#615=CARTESIAN_POINT('',(0.,0.,0.));
#616=CARTESIAN_POINT('',(-4.5,0.,0.));
#617=CARTESIAN_POINT('',(0.,0.,-0.5));
#618=CARTESIAN_POINT('',(0.,0.,0.));
#619=CARTESIAN_POINT('',(-5.5,0.,0.));
#620=CARTESIAN_POINT('',(4.5,0.,0.));
#621=CARTESIAN_POINT('',(0.,0.,0.746410161513728));
#622=CARTESIAN_POINT('',(-5.69999999999999,0.,0.746410161513728));
#623=CARTESIAN_POINT('',(0.,0.,0.));
#624=CARTESIAN_POINT('',(0.,0.,5.));
#625=CARTESIAN_POINT('',(-5.7,0.,5.));
#626=CARTESIAN_POINT('',(0.,0.,0.));
#627=CARTESIAN_POINT('',(0.,0.,5.));
#628=CARTESIAN_POINT('',(-6.2,0.,5.));
#629=CARTESIAN_POINT('',(5.7,0.,5.));
#630=CARTESIAN_POINT('',(0.,0.,5.3));
#631=CARTESIAN_POINT('',(-6.5,0.,5.3));
#632=CARTESIAN_POINT('',(0.,0.,5.3));
#633=CARTESIAN_POINT('',(0.,0.,5.8));
#634=CARTESIAN_POINT('',(-6.5,0.,5.8));
#635=CARTESIAN_POINT('',(0.,0.,0.));
#636=CARTESIAN_POINT('',(0.,0.,5.8));
#637=CARTESIAN_POINT('',(-5.7,0.,5.8));
#638=CARTESIAN_POINT('',(6.5,0.,5.8));
#639=CARTESIAN_POINT('',(0.,0.,8.));
#640=CARTESIAN_POINT('',(-5.7,0.,8.));
#641=CARTESIAN_POINT('',(0.,0.,0.));
#642=CARTESIAN_POINT('',(0.,0.,8.8));
#643=CARTESIAN_POINT('',(-6.5,0.,8.8));
#644=CARTESIAN_POINT('',(0.,0.,8.));
#645=CARTESIAN_POINT('',(0.,0.,9.4));
#646=CARTESIAN_POINT('',(-6.5,0.,9.4));
#647=CARTESIAN_POINT('',(0.,0.,0.));
#648=CARTESIAN_POINT('',(0.,0.,9.74855627054164));
#649=CARTESIAN_POINT('',(-5.62860932364589,0.,9.74855627054164));
#650=CARTESIAN_POINT('',(0.,0.,9.4));
#651=CARTESIAN_POINT('',(0.,0.,10.6770329614269));
#652=CARTESIAN_POINT('',(-5.,0.,10.6770329614269));
#653=CARTESIAN_POINT('',(0.,0.,10.6770329614269));
#654=CARTESIAN_POINT('',(0.,0.,24.8));
#655=CARTESIAN_POINT('',(-5.,0.,24.8));
#656=CARTESIAN_POINT('',(0.,0.,0.));
#657=CARTESIAN_POINT('',(0.,0.,24.9));
#658=CARTESIAN_POINT('',(-4.9,0.,24.9));
#659=CARTESIAN_POINT('',(0.,0.,24.8));
#660=CARTESIAN_POINT('',(0.,0.,25.1));
#661=CARTESIAN_POINT('',(-4.9,0.,25.1));
#662=CARTESIAN_POINT('',(0.,0.,0.));
#663=CARTESIAN_POINT('',(0.,0.,25.2));
#664=CARTESIAN_POINT('',(-5.,0.,25.2));
#665=CARTESIAN_POINT('',(0.,0.,25.1));
#666=CARTESIAN_POINT('',(0.,0.,25.8));
#667=CARTESIAN_POINT('',(-5.,0.,25.8));
#668=CARTESIAN_POINT('',(0.,0.,0.));
#669=CARTESIAN_POINT('',(0.,0.,25.9));
#670=CARTESIAN_POINT('',(-4.9,0.,25.9));
#671=CARTESIAN_POINT('',(0.,0.,25.8));
#672=CARTESIAN_POINT('',(0.,0.,26.1));
#673=CARTESIAN_POINT('',(-4.9,0.,26.1));
#674=CARTESIAN_POINT('',(0.,0.,0.));
#675=CARTESIAN_POINT('',(0.,0.,26.2));
#676=CARTESIAN_POINT('',(-5.,0.,26.2));
#677=CARTESIAN_POINT('',(0.,0.,26.1));
#678=CARTESIAN_POINT('',(0.,0.,26.4226497308104));
#679=CARTESIAN_POINT('',(-5.,0.,26.4226497308104));
#680=CARTESIAN_POINT('',(0.,0.,0.));
#681=CARTESIAN_POINT('',(0.,0.,26.8556624327026));
#682=CARTESIAN_POINT('',(-5.25,0.,26.8556624327026));
#683=CARTESIAN_POINT('',(0.,0.,26.4226497308104));
#684=CARTESIAN_POINT('',(0.,0.,27.));
#685=CARTESIAN_POINT('',(-5.5,0.,27.));
#686=CARTESIAN_POINT('',(0.,0.,26.8556624327026));
#687=CARTESIAN_POINT('',(0.,0.,28.));
#688=CARTESIAN_POINT('',(-5.5,0.,28.));
#689=CARTESIAN_POINT('',(0.,0.,0.));
#690=CARTESIAN_POINT('',(5.5,0.,28.));
#691=(
GEOMETRIC_REPRESENTATION_CONTEXT(3)
GLOBAL_UNCERTAINTY_ASSIGNED_CONTEXT((#692))
GLOBAL_UNIT_ASSIGNED_CONTEXT((#698,#694,#693))
REPRESENTATION_CONTEXT('N_01_080_0005_X__3D_Modell',
'TOP_LEVEL_ASSEMBLY_PART')
);
#692=UNCERTAINTY_MEASURE_WITH_UNIT(LENGTH_MEASURE(0.0254),#698,
'DISTANCE_ACCURACY_VALUE','Maximum Tolerance applied to model');
#693=(
NAMED_UNIT(*)
SI_UNIT($,.STERADIAN.)
SOLID_ANGLE_UNIT()
);
#694=(
CONVERSION_BASED_UNIT('DEGREE',#696)
NAMED_UNIT(#695)
PLANE_ANGLE_UNIT()
);
#695=DIMENSIONAL_EXPONENTS(0.,0.,0.,0.,0.,0.,0.);
#696=PLANE_ANGLE_MEASURE_WITH_UNIT(PLANE_ANGLE_MEASURE(0.0174532925),#697);
#697=(
NAMED_UNIT(*)
PLANE_ANGLE_UNIT()
SI_UNIT($,.RADIAN.)
);
#698=(
LENGTH_UNIT()
NAMED_UNIT(*)
SI_UNIT(.MILLI.,.METRE.)
);
ENDSEC;
END-ISO-10303-21;
