ISO-10303-21;
HEADER;
/* Generated by software containing ST-Developer
 * from STEP Tools, Inc. (www.steptools.com) 
 */
/* OPTION: using custom schema-name function */

FILE_DESCRIPTION(
/* description */ (''),
/* implementation_level */ '2;1');

FILE_NAME(
/* name */ 'C3D_N_02_040_0010.stp',
/* time_stamp */ '2016-03-03T08:28:55+01:00',
/* author */ (''),
/* organization */ (''),
/* preprocessor_version */ 'ST-DEVELOPER v15',
/* originating_system */ 'SIEMENS PLM Software NX 9.0',
/* authorisation */ '');

FILE_SCHEMA (('CONFIG_CONTROL_DESIGN'));
ENDSEC;

DATA;
#10=SHAPE_REPRESENTATION_RELATIONSHIP('None',
'relationship between n 02 040 0010nxm001-05-None and n 02 040 0010nxm
001-05-None',#92,#11);
#11=ADVANCED_BREP_SHAPE_REPRESENTATION('n 02 040 0010nxm001-05-None',(#93),
#449);
#12=CC_DESIGN_APPROVAL(#24,(#82));
#13=CC_DESIGN_APPROVAL(#25,(#84));
#14=CC_DESIGN_APPROVAL(#26,(#31));
#15=APPROVAL_PERSON_ORGANIZATION(#69,#24,#18);
#16=APPROVAL_PERSON_ORGANIZATION(#70,#25,#19);
#17=APPROVAL_PERSON_ORGANIZATION(#71,#26,#20);
#18=APPROVAL_ROLE('approver');
#19=APPROVAL_ROLE('approver');
#20=APPROVAL_ROLE('approver');
#21=APPROVAL_DATE_TIME(#39,#24);
#22=APPROVAL_DATE_TIME(#40,#25);
#23=APPROVAL_DATE_TIME(#41,#26);
#24=APPROVAL(#27,' ');
#25=APPROVAL(#28,' ');
#26=APPROVAL(#29,' ');
#27=APPROVAL_STATUS('not_yet_approved');
#28=APPROVAL_STATUS('not_yet_approved');
#29=APPROVAL_STATUS('not_yet_approved');
#30=CC_DESIGN_SECURITY_CLASSIFICATION(#31,(#84));
#31=SECURITY_CLASSIFICATION(' ',' ',#32);
#32=SECURITY_CLASSIFICATION_LEVEL('confidential');
#33=CC_DESIGN_DATE_AND_TIME_ASSIGNMENT(#37,#35,(#82));
#34=CC_DESIGN_DATE_AND_TIME_ASSIGNMENT(#38,#36,(#31));
#35=DATE_TIME_ROLE('creation_date');
#36=DATE_TIME_ROLE('classification_date');
#37=DATE_AND_TIME(#52,#42);
#38=DATE_AND_TIME(#53,#43);
#39=DATE_AND_TIME(#54,#44);
#40=DATE_AND_TIME(#55,#45);
#41=DATE_AND_TIME(#56,#46);
#42=LOCAL_TIME(0,0,0.,#47);
#43=LOCAL_TIME(0,0,0.,#48);
#44=LOCAL_TIME(0,0,0.,#49);
#45=LOCAL_TIME(0,0,0.,#50);
#46=LOCAL_TIME(0,0,0.,#51);
#47=COORDINATED_UNIVERSAL_TIME_OFFSET(0,0,.BEHIND.);
#48=COORDINATED_UNIVERSAL_TIME_OFFSET(0,0,.BEHIND.);
#49=COORDINATED_UNIVERSAL_TIME_OFFSET(0,0,.BEHIND.);
#50=COORDINATED_UNIVERSAL_TIME_OFFSET(0,0,.BEHIND.);
#51=COORDINATED_UNIVERSAL_TIME_OFFSET(0,0,.BEHIND.);
#52=CALENDAR_DATE(0,1,1);
#53=CALENDAR_DATE(0,1,1);
#54=CALENDAR_DATE(0,1,1);
#55=CALENDAR_DATE(0,1,1);
#56=CALENDAR_DATE(0,1,1);
#57=CC_DESIGN_PERSON_AND_ORGANIZATION_ASSIGNMENT(#65,#61,(#82,#84));
#58=CC_DESIGN_PERSON_AND_ORGANIZATION_ASSIGNMENT(#66,#62,(#86));
#59=CC_DESIGN_PERSON_AND_ORGANIZATION_ASSIGNMENT(#67,#63,(#84));
#60=CC_DESIGN_PERSON_AND_ORGANIZATION_ASSIGNMENT(#68,#64,(#31));
#61=PERSON_AND_ORGANIZATION_ROLE('creator');
#62=PERSON_AND_ORGANIZATION_ROLE('design_owner');
#63=PERSON_AND_ORGANIZATION_ROLE('design_supplier');
#64=PERSON_AND_ORGANIZATION_ROLE('classification_officer');
#65=PERSON_AND_ORGANIZATION(#79,#72);
#66=PERSON_AND_ORGANIZATION(#79,#73);
#67=PERSON_AND_ORGANIZATION(#79,#74);
#68=PERSON_AND_ORGANIZATION(#79,#75);
#69=PERSON_AND_ORGANIZATION(#79,#76);
#70=PERSON_AND_ORGANIZATION(#79,#77);
#71=PERSON_AND_ORGANIZATION(#79,#78);
#72=ORGANIZATION(' ',' ',' ');
#73=ORGANIZATION(' ',' ',' ');
#74=ORGANIZATION(' ',' ',' ');
#75=ORGANIZATION(' ',' ',' ');
#76=ORGANIZATION(' ',' ',' ');
#77=ORGANIZATION(' ',' ',' ');
#78=ORGANIZATION(' ',' ',' ');
#79=PERSON(' ',' ',' ',(' '),$,$);
#80=SHAPE_DEFINITION_REPRESENTATION(#81,#92);
#81=PRODUCT_DEFINITION_SHAPE('','',#82);
#82=PRODUCT_DEFINITION(' ','',#84,#83);
#83=DESIGN_CONTEXT('',#91,'design');
#84=PRODUCT_DEFINITION_FORMATION_WITH_SPECIFIED_SOURCE(' ',' ',#86,
 .NOT_KNOWN.);
#85=PRODUCT_RELATED_PRODUCT_CATEGORY('detail','',(#86));
#86=PRODUCT('n 02 040 0010nxm001-05','n 02 040 0010nxm001-05',' ',(#89));
#87=PRODUCT_CATEGORY('part',' ');
#88=PRODUCT_CATEGORY(' ','');
#89=MECHANICAL_CONTEXT(' ',#91,'mechanical');
#90=APPLICATION_PROTOCOL_DEFINITION('international standard',
'config_control_design',2010,#91);
#91=APPLICATION_CONTEXT(
'configuration controlled 3D designs of mechanical parts and assemblie
s');
#92=SHAPE_REPRESENTATION('n 02 040 0010nxm001-05-None',(#287),#449);
#93=MANIFOLD_SOLID_BREP('',#94);
#94=CLOSED_SHELL('',(#109,#110,#111,#112,#113,#114,#115,#116,#117,#118,
#119,#120,#121,#122,#123,#124,#125,#126));
#95=PLANE('',#313);
#96=FACE_OUTER_BOUND('',#190,.T.);
#97=VERTEX_LOOP('',#244);
#98=CONICAL_SURFACE('',#293,2.9,45.0000000000001);
#99=CONICAL_SURFACE('',#294,3.,44.9999999999994);
#100=CONICAL_SURFACE('',#297,2.16256436034942,10.5848982101026);
#101=CONICAL_SURFACE('',#300,2.13344670975656,79.4151017898973);
#102=CONICAL_SURFACE('',#301,1.8568649245034,19.4151017898974);
#103=CONICAL_SURFACE('',#304,3.02735144644972E-017,70.);
#104=CONICAL_SURFACE('',#306,2.37919265979627,10.5848982101026);
#105=CONICAL_SURFACE('',#309,2.9,45.);
#106=CONICAL_SURFACE('',#311,3.,45.0000000000004);
#107=CONICAL_SURFACE('',#317,3.,45.);
#108=CONICAL_SURFACE('',#321,1.5,45.);
#109=ADVANCED_FACE('',(#133,#134),#127,.T.);
#110=ADVANCED_FACE('',(#135,#136),#98,.T.);
#111=ADVANCED_FACE('',(#137,#138),#99,.T.);
#112=ADVANCED_FACE('',(#139,#140),#100,.F.);
#113=ADVANCED_FACE('',(#141,#142),#101,.F.);
#114=ADVANCED_FACE('',(#143,#144),#102,.F.);
#115=ADVANCED_FACE('',(#145,#146),#128,.F.);
#116=ADVANCED_FACE('',(#147,#148),#103,.F.);
#117=ADVANCED_FACE('',(#149,#150),#104,.T.);
#118=ADVANCED_FACE('',(#151,#152),#129,.T.);
#119=ADVANCED_FACE('',(#153,#154),#105,.T.);
#120=ADVANCED_FACE('',(#155,#156),#106,.T.);
#121=ADVANCED_FACE('',(#96),#95,.T.);
#122=ADVANCED_FACE('',(#157,#158),#130,.T.);
#123=ADVANCED_FACE('',(#159,#160),#107,.T.);
#124=ADVANCED_FACE('',(#161,#162),#131,.T.);
#125=ADVANCED_FACE('',(#163,#164),#108,.T.);
#126=ADVANCED_FACE('',(#165,#166),#132,.T.);
#127=CYLINDRICAL_SURFACE('',#290,3.);
#128=CYLINDRICAL_SURFACE('',#303,2.2);
#129=CYLINDRICAL_SURFACE('',#307,3.);
#130=CYLINDRICAL_SURFACE('',#315,3.);
#131=CYLINDRICAL_SURFACE('',#319,1.5);
#132=CYLINDRICAL_SURFACE('',#322,3.);
#133=FACE_BOUND('',#167,.T.);
#134=FACE_BOUND('',#168,.T.);
#135=FACE_BOUND('',#169,.T.);
#136=FACE_BOUND('',#170,.T.);
#137=FACE_BOUND('',#171,.T.);
#138=FACE_BOUND('',#172,.T.);
#139=FACE_BOUND('',#173,.T.);
#140=FACE_BOUND('',#174,.T.);
#141=FACE_BOUND('',#175,.T.);
#142=FACE_BOUND('',#176,.T.);
#143=FACE_BOUND('',#177,.T.);
#144=FACE_BOUND('',#178,.T.);
#145=FACE_BOUND('',#179,.T.);
#146=FACE_BOUND('',#180,.T.);
#147=FACE_BOUND('',#181,.T.);
#148=FACE_BOUND('',#97,.T.);
#149=FACE_BOUND('',#182,.T.);
#150=FACE_BOUND('',#183,.T.);
#151=FACE_BOUND('',#184,.T.);
#152=FACE_BOUND('',#185,.T.);
#153=FACE_BOUND('',#186,.T.);
#154=FACE_BOUND('',#187,.T.);
#155=FACE_BOUND('',#188,.T.);
#156=FACE_BOUND('',#189,.T.);
#157=FACE_BOUND('',#191,.T.);
#158=FACE_BOUND('',#192,.T.);
#159=FACE_BOUND('',#193,.T.);
#160=FACE_BOUND('',#194,.T.);
#161=FACE_BOUND('',#195,.T.);
#162=FACE_BOUND('',#196,.T.);
#163=FACE_BOUND('',#197,.T.);
#164=FACE_BOUND('',#198,.T.);
#165=FACE_BOUND('',#199,.T.);
#166=FACE_BOUND('',#200,.T.);
#167=EDGE_LOOP('',(#201));
#168=EDGE_LOOP('',(#202));
#169=EDGE_LOOP('',(#203));
#170=EDGE_LOOP('',(#204));
#171=EDGE_LOOP('',(#205));
#172=EDGE_LOOP('',(#206));
#173=EDGE_LOOP('',(#207));
#174=EDGE_LOOP('',(#208));
#175=EDGE_LOOP('',(#209));
#176=EDGE_LOOP('',(#210));
#177=EDGE_LOOP('',(#211));
#178=EDGE_LOOP('',(#212));
#179=EDGE_LOOP('',(#213));
#180=EDGE_LOOP('',(#214));
#181=EDGE_LOOP('',(#215));
#182=EDGE_LOOP('',(#216));
#183=EDGE_LOOP('',(#217));
#184=EDGE_LOOP('',(#218));
#185=EDGE_LOOP('',(#219));
#186=EDGE_LOOP('',(#220));
#187=EDGE_LOOP('',(#221));
#188=EDGE_LOOP('',(#222));
#189=EDGE_LOOP('',(#223));
#190=EDGE_LOOP('',(#224));
#191=EDGE_LOOP('',(#225));
#192=EDGE_LOOP('',(#226));
#193=EDGE_LOOP('',(#227));
#194=EDGE_LOOP('',(#228));
#195=EDGE_LOOP('',(#229));
#196=EDGE_LOOP('',(#230));
#197=EDGE_LOOP('',(#231));
#198=EDGE_LOOP('',(#232));
#199=EDGE_LOOP('',(#233));
#200=EDGE_LOOP('',(#234));
#201=ORIENTED_EDGE('',*,*,#253,.T.);
#202=ORIENTED_EDGE('',*,*,#254,.F.);
#203=ORIENTED_EDGE('',*,*,#255,.F.);
#204=ORIENTED_EDGE('',*,*,#256,.T.);
#205=ORIENTED_EDGE('',*,*,#256,.F.);
#206=ORIENTED_EDGE('',*,*,#254,.T.);
#207=ORIENTED_EDGE('',*,*,#257,.T.);
#208=ORIENTED_EDGE('',*,*,#258,.F.);
#209=ORIENTED_EDGE('',*,*,#259,.T.);
#210=ORIENTED_EDGE('',*,*,#260,.F.);
#211=ORIENTED_EDGE('',*,*,#260,.T.);
#212=ORIENTED_EDGE('',*,*,#257,.F.);
#213=ORIENTED_EDGE('',*,*,#258,.T.);
#214=ORIENTED_EDGE('',*,*,#261,.F.);
#215=ORIENTED_EDGE('',*,*,#261,.T.);
#216=ORIENTED_EDGE('',*,*,#262,.T.);
#217=ORIENTED_EDGE('',*,*,#259,.F.);
#218=ORIENTED_EDGE('',*,*,#262,.F.);
#219=ORIENTED_EDGE('',*,*,#255,.T.);
#220=ORIENTED_EDGE('',*,*,#253,.F.);
#221=ORIENTED_EDGE('',*,*,#263,.T.);
#222=ORIENTED_EDGE('',*,*,#263,.F.);
#223=ORIENTED_EDGE('',*,*,#264,.T.);
#224=ORIENTED_EDGE('',*,*,#265,.T.);
#225=ORIENTED_EDGE('',*,*,#266,.F.);
#226=ORIENTED_EDGE('',*,*,#265,.F.);
#227=ORIENTED_EDGE('',*,*,#267,.F.);
#228=ORIENTED_EDGE('',*,*,#266,.T.);
#229=ORIENTED_EDGE('',*,*,#268,.F.);
#230=ORIENTED_EDGE('',*,*,#267,.T.);
#231=ORIENTED_EDGE('',*,*,#269,.F.);
#232=ORIENTED_EDGE('',*,*,#268,.T.);
#233=ORIENTED_EDGE('',*,*,#264,.F.);
#234=ORIENTED_EDGE('',*,*,#269,.T.);
#235=VERTEX_POINT('',#397);
#236=VERTEX_POINT('',#399);
#237=VERTEX_POINT('',#402);
#238=VERTEX_POINT('',#404);
#239=VERTEX_POINT('',#408);
#240=VERTEX_POINT('',#410);
#241=VERTEX_POINT('',#413);
#242=VERTEX_POINT('',#415);
#243=VERTEX_POINT('',#419);
#244=VERTEX_POINT('',#421);
#245=VERTEX_POINT('',#424);
#246=VERTEX_POINT('',#428);
#247=VERTEX_POINT('',#431);
#248=VERTEX_POINT('',#434);
#249=VERTEX_POINT('',#437);
#250=VERTEX_POINT('',#440);
#251=VERTEX_POINT('',#443);
#252=VERTEX_POINT('',#446);
#253=EDGE_CURVE('',#235,#235,#270,.T.);
#254=EDGE_CURVE('',#236,#236,#271,.T.);
#255=EDGE_CURVE('',#237,#237,#272,.T.);
#256=EDGE_CURVE('',#238,#238,#273,.T.);
#257=EDGE_CURVE('',#239,#239,#274,.T.);
#258=EDGE_CURVE('',#240,#240,#275,.T.);
#259=EDGE_CURVE('',#241,#241,#276,.T.);
#260=EDGE_CURVE('',#242,#242,#277,.T.);
#261=EDGE_CURVE('',#243,#243,#278,.T.);
#262=EDGE_CURVE('',#245,#245,#279,.T.);
#263=EDGE_CURVE('',#246,#246,#280,.T.);
#264=EDGE_CURVE('',#247,#247,#281,.T.);
#265=EDGE_CURVE('',#248,#248,#282,.T.);
#266=EDGE_CURVE('',#249,#249,#283,.T.);
#267=EDGE_CURVE('',#250,#250,#284,.T.);
#268=EDGE_CURVE('',#251,#251,#285,.T.);
#269=EDGE_CURVE('',#252,#252,#286,.T.);
#270=CIRCLE('',#288,3.);
#271=CIRCLE('',#289,3.);
#272=CIRCLE('',#291,3.);
#273=CIRCLE('',#292,2.9);
#274=CIRCLE('',#295,1.76779600548357);
#275=CIRCLE('',#296,2.2);
#276=CIRCLE('',#298,2.37919265979627);
#277=CIRCLE('',#299,2.13344670975656);
#278=CIRCLE('',#302,2.2);
#279=CIRCLE('',#305,3.);
#280=CIRCLE('',#308,2.9);
#281=CIRCLE('',#310,3.);
#282=CIRCLE('',#312,3.);
#283=CIRCLE('',#314,3.);
#284=CIRCLE('',#316,1.5);
#285=CIRCLE('',#318,1.5);
#286=CIRCLE('',#320,3.);
#287=AXIS2_PLACEMENT_3D('',#395,#323,#324);
#288=AXIS2_PLACEMENT_3D('',#396,#325,#326);
#289=AXIS2_PLACEMENT_3D('',#398,#327,#328);
#290=AXIS2_PLACEMENT_3D('',#400,#329,#330);
#291=AXIS2_PLACEMENT_3D('',#401,#331,#332);
#292=AXIS2_PLACEMENT_3D('',#403,#333,#334);
#293=AXIS2_PLACEMENT_3D('',#405,#335,#336);
#294=AXIS2_PLACEMENT_3D('',#406,#337,#338);
#295=AXIS2_PLACEMENT_3D('',#407,#339,#340);
#296=AXIS2_PLACEMENT_3D('',#409,#341,#342);
#297=AXIS2_PLACEMENT_3D('',#411,#343,#344);
#298=AXIS2_PLACEMENT_3D('',#412,#345,#346);
#299=AXIS2_PLACEMENT_3D('',#414,#347,#348);
#300=AXIS2_PLACEMENT_3D('',#416,#349,#350);
#301=AXIS2_PLACEMENT_3D('',#417,#351,#352);
#302=AXIS2_PLACEMENT_3D('',#418,#353,#354);
#303=AXIS2_PLACEMENT_3D('',#420,#355,#356);
#304=AXIS2_PLACEMENT_3D('',#422,#357,#358);
#305=AXIS2_PLACEMENT_3D('',#423,#359,#360);
#306=AXIS2_PLACEMENT_3D('',#425,#361,#362);
#307=AXIS2_PLACEMENT_3D('',#426,#363,#364);
#308=AXIS2_PLACEMENT_3D('',#427,#365,#366);
#309=AXIS2_PLACEMENT_3D('',#429,#367,#368);
#310=AXIS2_PLACEMENT_3D('',#430,#369,#370);
#311=AXIS2_PLACEMENT_3D('',#432,#371,#372);
#312=AXIS2_PLACEMENT_3D('',#433,#373,#374);
#313=AXIS2_PLACEMENT_3D('',#435,#375,#376);
#314=AXIS2_PLACEMENT_3D('',#436,#377,#378);
#315=AXIS2_PLACEMENT_3D('',#438,#379,#380);
#316=AXIS2_PLACEMENT_3D('',#439,#381,#382);
#317=AXIS2_PLACEMENT_3D('',#441,#383,#384);
#318=AXIS2_PLACEMENT_3D('',#442,#385,#386);
#319=AXIS2_PLACEMENT_3D('',#444,#387,#388);
#320=AXIS2_PLACEMENT_3D('',#445,#389,#390);
#321=AXIS2_PLACEMENT_3D('',#447,#391,#392);
#322=AXIS2_PLACEMENT_3D('',#448,#393,#394);
#323=DIRECTION('',(0.,0.,1.));
#324=DIRECTION('',(1.,0.,0.));
#325=DIRECTION('',(0.,0.,-1.));
#326=DIRECTION('',(-1.,0.,0.));
#327=DIRECTION('',(0.,0.,-1.));
#328=DIRECTION('',(-1.,0.,0.));
#329=DIRECTION('',(0.,0.,-1.));
#330=DIRECTION('',(-1.,0.,0.));
#331=DIRECTION('',(0.,0.,-1.));
#332=DIRECTION('',(-1.,0.,0.));
#333=DIRECTION('',(0.,0.,-1.));
#334=DIRECTION('',(-1.,0.,0.));
#335=DIRECTION('',(0.,0.,-1.));
#336=DIRECTION('',(-1.,0.,-5.83776222098085E-017));
#337=DIRECTION('',(0.,0.,1.));
#338=DIRECTION('',(1.,0.,3.8914534605662E-017));
#339=DIRECTION('',(0.,0.,-1.));
#340=DIRECTION('',(-1.,0.,0.));
#341=DIRECTION('',(0.,0.,-1.));
#342=DIRECTION('',(1.,0.,0.));
#343=DIRECTION('',(0.,0.,1.));
#344=DIRECTION('',(1.,0.,-1.37651205683073E-016));
#345=DIRECTION('',(0.,0.,-1.));
#346=DIRECTION('',(-1.,0.,0.));
#347=DIRECTION('',(0.,0.,-1.));
#348=DIRECTION('',(-1.,0.,0.));
#349=DIRECTION('',(0.,0.,-1.));
#350=DIRECTION('',(-1.,0.,-6.80488752001243E-018));
#351=DIRECTION('',(0.,0.,-1.));
#352=DIRECTION('',(-1.,0.,2.00739223583807E-016));
#353=DIRECTION('',(0.,0.,-1.));
#354=DIRECTION('',(-1.,0.,0.));
#355=DIRECTION('',(0.,0.,-1.));
#356=DIRECTION('',(-1.,0.,0.));
#357=DIRECTION('',(0.,0.,-1.));
#358=DIRECTION('',(-1.,0.,0.));
#359=DIRECTION('',(0.,0.,-1.));
#360=DIRECTION('',(1.,0.,0.));
#361=DIRECTION('',(0.,0.,1.));
#362=DIRECTION('',(1.,0.,1.64992370318555E-016));
#363=DIRECTION('',(0.,0.,-1.));
#364=DIRECTION('',(-1.,0.,0.));
#365=DIRECTION('',(0.,0.,-1.));
#366=DIRECTION('',(-1.,0.,0.));
#367=DIRECTION('',(0.,0.,-1.));
#368=DIRECTION('',(-1.,0.,1.08106707795942E-016));
#369=DIRECTION('',(0.,0.,-1.));
#370=DIRECTION('',(-1.,0.,0.));
#371=DIRECTION('',(0.,0.,1.));
#372=DIRECTION('',(1.,0.,-1.25391278173795E-017));
#373=DIRECTION('',(0.,0.,1.));
#374=DIRECTION('',(1.,0.,0.));
#375=DIRECTION('',(0.,0.,1.));
#376=DIRECTION('',(1.,0.,0.));
#377=DIRECTION('',(0.,0.,-1.));
#378=DIRECTION('',(-1.,0.,0.));
#379=DIRECTION('',(0.,0.,-1.));
#380=DIRECTION('',(-1.,0.,0.));
#381=DIRECTION('',(0.,0.,-1.));
#382=DIRECTION('',(-1.,0.,0.));
#383=DIRECTION('',(0.,0.,1.));
#384=DIRECTION('',(1.,0.,7.09109297258715E-017));
#385=DIRECTION('',(0.,0.,-1.));
#386=DIRECTION('',(-1.,0.,0.));
#387=DIRECTION('',(0.,0.,-1.));
#388=DIRECTION('',(-1.,0.,0.));
#389=DIRECTION('',(0.,0.,-1.));
#390=DIRECTION('',(-1.,0.,0.));
#391=DIRECTION('',(0.,0.,-1.));
#392=DIRECTION('',(-1.,0.,1.12588143722908E-017));
#393=DIRECTION('',(0.,0.,-1.));
#394=DIRECTION('',(-1.,0.,0.));
#395=CARTESIAN_POINT('',(0.,0.,0.));
#396=CARTESIAN_POINT('',(0.,0.,-3.1));
#397=CARTESIAN_POINT('',(-3.,0.,-3.1));
#398=CARTESIAN_POINT('',(0.,0.,-3.4));
#399=CARTESIAN_POINT('',(-3.,0.,-3.4));
#400=CARTESIAN_POINT('',(0.,0.,7.9));
#401=CARTESIAN_POINT('',(0.,0.,-3.6));
#402=CARTESIAN_POINT('',(-3.,0.,-3.6));
#403=CARTESIAN_POINT('',(0.,0.,-3.5));
#404=CARTESIAN_POINT('',(-2.9,0.,-3.5));
#405=CARTESIAN_POINT('',(0.,0.,-3.5));
#406=CARTESIAN_POINT('',(0.,0.,-3.4));
#407=CARTESIAN_POINT('',(0.,0.,-14.3166283504284));
#408=CARTESIAN_POINT('',(-1.76779600548357,0.,-14.3166283504284));
#409=CARTESIAN_POINT('',(0.,0.,-12.0037954043749));
#410=CARTESIAN_POINT('',(2.2,0.,-12.0037954043749));
#411=CARTESIAN_POINT('',(0.,0.,-12.2041229854221));
#412=CARTESIAN_POINT('',(0.,0.,-15.4));
#413=CARTESIAN_POINT('',(-2.37919265979627,0.,-15.4));
#414=CARTESIAN_POINT('',(0.,0.,-15.3540769334748));
#415=CARTESIAN_POINT('',(-2.13344670975656,0.,-15.3540769334748));
#416=CARTESIAN_POINT('',(0.,0.,-15.3540769334748));
#417=CARTESIAN_POINT('',(0.,0.,-14.5693406322612));
#418=CARTESIAN_POINT('',(0.,0.,-5.));
#419=CARTESIAN_POINT('',(-2.2,0.,-5.));
#420=CARTESIAN_POINT('',(0.,0.,0.));
#421=CARTESIAN_POINT('',(0.,-3.02735144644972E-017,-4.19926548461436));
#422=CARTESIAN_POINT('',(0.,0.,-4.19926548461436));
#423=CARTESIAN_POINT('',(0.,0.,-12.0779028241478));
#424=CARTESIAN_POINT('',(3.,0.,-12.0779028241478));
#425=CARTESIAN_POINT('',(0.,0.,-15.4));
#426=CARTESIAN_POINT('',(0.,0.,7.9));
#427=CARTESIAN_POINT('',(0.,0.,-3.));
#428=CARTESIAN_POINT('',(-2.9,0.,-3.));
#429=CARTESIAN_POINT('',(0.,0.,-3.));
#430=CARTESIAN_POINT('',(0.,0.,-2.9));
#431=CARTESIAN_POINT('',(-3.,0.,-2.9));
#432=CARTESIAN_POINT('',(0.,0.,-2.9));
#433=CARTESIAN_POINT('',(0.,0.,7.9));
#434=CARTESIAN_POINT('',(3.,0.,7.9));
#435=CARTESIAN_POINT('',(0.,0.,7.9));
#436=CARTESIAN_POINT('',(0.,0.,7.4));
#437=CARTESIAN_POINT('',(-3.,0.,7.4));
#438=CARTESIAN_POINT('',(0.,0.,7.9));
#439=CARTESIAN_POINT('',(0.,0.,5.9));
#440=CARTESIAN_POINT('',(-1.5,0.,5.9));
#441=CARTESIAN_POINT('',(0.,0.,7.4));
#442=CARTESIAN_POINT('',(0.,0.,0.900000000000001));
#443=CARTESIAN_POINT('',(-1.5,0.,0.900000000000001));
#444=CARTESIAN_POINT('',(0.,0.,7.9));
#445=CARTESIAN_POINT('',(0.,0.,-0.6));
#446=CARTESIAN_POINT('',(-3.,0.,-0.6));
#447=CARTESIAN_POINT('',(0.,0.,0.900000000000001));
#448=CARTESIAN_POINT('',(0.,0.,7.9));
#449=(
GEOMETRIC_REPRESENTATION_CONTEXT(3)
GLOBAL_UNCERTAINTY_ASSIGNED_CONTEXT((#450))
GLOBAL_UNIT_ASSIGNED_CONTEXT((#456,#452,#451))
REPRESENTATION_CONTEXT('C3D_N_02_040_0010','TOP_LEVEL_ASSEMBLY_PART')
);
#450=UNCERTAINTY_MEASURE_WITH_UNIT(LENGTH_MEASURE(2.E-005),#456,
'DISTANCE_ACCURACY_VALUE','Maximum Tolerance applied to model');
#451=(
NAMED_UNIT(*)
SI_UNIT($,.STERADIAN.)
SOLID_ANGLE_UNIT()
);
#452=(
CONVERSION_BASED_UNIT('DEGREE',#454)
NAMED_UNIT(#453)
PLANE_ANGLE_UNIT()
);
#453=DIMENSIONAL_EXPONENTS(0.,0.,0.,0.,0.,0.,0.);
#454=PLANE_ANGLE_MEASURE_WITH_UNIT(PLANE_ANGLE_MEASURE(0.0174532925),#455);
#455=(
NAMED_UNIT(*)
PLANE_ANGLE_UNIT()
SI_UNIT($,.RADIAN.)
);
#456=(
LENGTH_UNIT()
NAMED_UNIT(*)
SI_UNIT(.MILLI.,.METRE.)
);
ENDSEC;
END-ISO-10303-21;
