ISO-10303-21;
HEADER;
/* Generated by software containing ST-Developer
 * from STEP Tools, Inc. (www.steptools.com) 
 */
/* OPTION: using custom schema-name function */

FILE_DESCRIPTION(
/* description */ (''),
/* implementation_level */ '2;1');

FILE_NAME(
/* name */ 'C3D_N_02_040_0011.stp',
/* time_stamp */ '2016-03-03T08:32:08+01:00',
/* author */ (''),
/* organization */ (''),
/* preprocessor_version */ 'ST-DEVELOPER v15',
/* originating_system */ 'SIEMENS PLM Software NX 9.0',
/* authorisation */ '');

FILE_SCHEMA (('CONFIG_CONTROL_DESIGN'));
ENDSEC;

DATA;
#10=SHAPE_REPRESENTATION_RELATIONSHIP('None',
'relationship between n 02 040 0011nxm001-05-None and n 02 040 0011nxm
001-05-None',#92,#11);
#11=ADVANCED_BREP_SHAPE_REPRESENTATION('n 02 040 0011nxm001-05-None',(#93),
#509);
#12=CC_DESIGN_APPROVAL(#24,(#82));
#13=CC_DESIGN_APPROVAL(#25,(#84));
#14=CC_DESIGN_APPROVAL(#26,(#31));
#15=APPROVAL_PERSON_ORGANIZATION(#69,#24,#18);
#16=APPROVAL_PERSON_ORGANIZATION(#70,#25,#19);
#17=APPROVAL_PERSON_ORGANIZATION(#71,#26,#20);
#18=APPROVAL_ROLE('approver');
#19=APPROVAL_ROLE('approver');
#20=APPROVAL_ROLE('approver');
#21=APPROVAL_DATE_TIME(#39,#24);
#22=APPROVAL_DATE_TIME(#40,#25);
#23=APPROVAL_DATE_TIME(#41,#26);
#24=APPROVAL(#27,' ');
#25=APPROVAL(#28,' ');
#26=APPROVAL(#29,' ');
#27=APPROVAL_STATUS('not_yet_approved');
#28=APPROVAL_STATUS('not_yet_approved');
#29=APPROVAL_STATUS('not_yet_approved');
#30=CC_DESIGN_SECURITY_CLASSIFICATION(#31,(#84));
#31=SECURITY_CLASSIFICATION(' ',' ',#32);
#32=SECURITY_CLASSIFICATION_LEVEL('confidential');
#33=CC_DESIGN_DATE_AND_TIME_ASSIGNMENT(#37,#35,(#82));
#34=CC_DESIGN_DATE_AND_TIME_ASSIGNMENT(#38,#36,(#31));
#35=DATE_TIME_ROLE('creation_date');
#36=DATE_TIME_ROLE('classification_date');
#37=DATE_AND_TIME(#52,#42);
#38=DATE_AND_TIME(#53,#43);
#39=DATE_AND_TIME(#54,#44);
#40=DATE_AND_TIME(#55,#45);
#41=DATE_AND_TIME(#56,#46);
#42=LOCAL_TIME(0,0,0.,#47);
#43=LOCAL_TIME(0,0,0.,#48);
#44=LOCAL_TIME(0,0,0.,#49);
#45=LOCAL_TIME(0,0,0.,#50);
#46=LOCAL_TIME(0,0,0.,#51);
#47=COORDINATED_UNIVERSAL_TIME_OFFSET(0,0,.BEHIND.);
#48=COORDINATED_UNIVERSAL_TIME_OFFSET(0,0,.BEHIND.);
#49=COORDINATED_UNIVERSAL_TIME_OFFSET(0,0,.BEHIND.);
#50=COORDINATED_UNIVERSAL_TIME_OFFSET(0,0,.BEHIND.);
#51=COORDINATED_UNIVERSAL_TIME_OFFSET(0,0,.BEHIND.);
#52=CALENDAR_DATE(0,1,1);
#53=CALENDAR_DATE(0,1,1);
#54=CALENDAR_DATE(0,1,1);
#55=CALENDAR_DATE(0,1,1);
#56=CALENDAR_DATE(0,1,1);
#57=CC_DESIGN_PERSON_AND_ORGANIZATION_ASSIGNMENT(#65,#61,(#82,#84));
#58=CC_DESIGN_PERSON_AND_ORGANIZATION_ASSIGNMENT(#66,#62,(#86));
#59=CC_DESIGN_PERSON_AND_ORGANIZATION_ASSIGNMENT(#67,#63,(#84));
#60=CC_DESIGN_PERSON_AND_ORGANIZATION_ASSIGNMENT(#68,#64,(#31));
#61=PERSON_AND_ORGANIZATION_ROLE('creator');
#62=PERSON_AND_ORGANIZATION_ROLE('design_owner');
#63=PERSON_AND_ORGANIZATION_ROLE('design_supplier');
#64=PERSON_AND_ORGANIZATION_ROLE('classification_officer');
#65=PERSON_AND_ORGANIZATION(#79,#72);
#66=PERSON_AND_ORGANIZATION(#79,#73);
#67=PERSON_AND_ORGANIZATION(#79,#74);
#68=PERSON_AND_ORGANIZATION(#79,#75);
#69=PERSON_AND_ORGANIZATION(#79,#76);
#70=PERSON_AND_ORGANIZATION(#79,#77);
#71=PERSON_AND_ORGANIZATION(#79,#78);
#72=ORGANIZATION(' ',' ',' ');
#73=ORGANIZATION(' ',' ',' ');
#74=ORGANIZATION(' ',' ',' ');
#75=ORGANIZATION(' ',' ',' ');
#76=ORGANIZATION(' ',' ',' ');
#77=ORGANIZATION(' ',' ',' ');
#78=ORGANIZATION(' ',' ',' ');
#79=PERSON(' ',' ',' ',(' '),$,$);
#80=SHAPE_DEFINITION_REPRESENTATION(#81,#92);
#81=PRODUCT_DEFINITION_SHAPE('','',#82);
#82=PRODUCT_DEFINITION(' ','',#84,#83);
#83=DESIGN_CONTEXT('',#91,'design');
#84=PRODUCT_DEFINITION_FORMATION_WITH_SPECIFIED_SOURCE(' ',' ',#86,
 .NOT_KNOWN.);
#85=PRODUCT_RELATED_PRODUCT_CATEGORY('detail','',(#86));
#86=PRODUCT('n 02 040 0011nxm001-05','n 02 040 0011nxm001-05',' ',(#89));
#87=PRODUCT_CATEGORY('part',' ');
#88=PRODUCT_CATEGORY(' ','');
#89=MECHANICAL_CONTEXT(' ',#91,'mechanical');
#90=APPLICATION_PROTOCOL_DEFINITION('international standard',
'config_control_design',2010,#91);
#91=APPLICATION_CONTEXT(
'configuration controlled 3D designs of mechanical parts and assemblie
s');
#92=SHAPE_REPRESENTATION('n 02 040 0011nxm001-05-None',(#320),#509);
#93=MANIFOLD_SOLID_BREP('',#94);
#94=CLOSED_SHELL('',(#105,#106,#107,#108,#109,#110,#111,#112,#113,#114,
#115,#116,#117,#118,#119,#120,#121,#122,#123,#124,#125));
#95=PLANE('',#352);
#96=FACE_OUTER_BOUND('',#208,.T.);
#97=VERTEX_LOOP('',#271);
#98=CYLINDRICAL_SURFACE('',#326,3.);
#99=CYLINDRICAL_SURFACE('',#329,3.);
#100=CYLINDRICAL_SURFACE('',#341,2.2);
#101=CYLINDRICAL_SURFACE('',#343,3.);
#102=CYLINDRICAL_SURFACE('',#354,3.);
#103=CYLINDRICAL_SURFACE('',#358,1.75);
#104=CYLINDRICAL_SURFACE('',#361,3.);
#105=ADVANCED_FACE('',(#139,#140),#126,.T.);
#106=ADVANCED_FACE('',(#141,#142),#98,.T.);
#107=ADVANCED_FACE('',(#143,#144),#99,.T.);
#108=ADVANCED_FACE('',(#145,#146),#127,.T.);
#109=ADVANCED_FACE('',(#147,#148),#128,.T.);
#110=ADVANCED_FACE('',(#149,#150),#129,.F.);
#111=ADVANCED_FACE('',(#151,#152),#130,.F.);
#112=ADVANCED_FACE('',(#153,#154),#131,.F.);
#113=ADVANCED_FACE('',(#155,#156),#100,.F.);
#114=ADVANCED_FACE('',(#157,#158),#132,.F.);
#115=ADVANCED_FACE('',(#159,#160),#101,.T.);
#116=ADVANCED_FACE('',(#161,#162),#133,.T.);
#117=ADVANCED_FACE('',(#163,#164),#134,.T.);
#118=ADVANCED_FACE('',(#165,#166),#135,.T.);
#119=ADVANCED_FACE('',(#167,#168),#136,.T.);
#120=ADVANCED_FACE('',(#96),#95,.T.);
#121=ADVANCED_FACE('',(#169,#170),#102,.T.);
#122=ADVANCED_FACE('',(#171,#172),#137,.T.);
#123=ADVANCED_FACE('',(#173,#174),#103,.T.);
#124=ADVANCED_FACE('',(#175,#176),#138,.T.);
#125=ADVANCED_FACE('',(#177,#178),#104,.T.);
#126=CONICAL_SURFACE('',#323,2.37919265979627,10.5848982101026);
#127=CONICAL_SURFACE('',#332,2.9,45.0000000000001);
#128=CONICAL_SURFACE('',#333,3.,44.9999999999994);
#129=CONICAL_SURFACE('',#335,2.13344670975656,79.4151017898973);
#130=CONICAL_SURFACE('',#337,1.8568649245034,19.4151017898974);
#131=CONICAL_SURFACE('',#339,2.16256436034942,10.5848982101026);
#132=CONICAL_SURFACE('',#342,3.02735144644972E-017,70.);
#133=CONICAL_SURFACE('',#345,2.9,45.);
#134=CONICAL_SURFACE('',#346,3.,45.0000000000004);
#135=CONICAL_SURFACE('',#348,2.9,45.);
#136=CONICAL_SURFACE('',#350,3.,45.0000000000015);
#137=CONICAL_SURFACE('',#356,3.,45.);
#138=CONICAL_SURFACE('',#360,1.75,45.);
#139=FACE_BOUND('',#179,.T.);
#140=FACE_BOUND('',#180,.T.);
#141=FACE_BOUND('',#181,.T.);
#142=FACE_BOUND('',#182,.T.);
#143=FACE_BOUND('',#183,.T.);
#144=FACE_BOUND('',#184,.T.);
#145=FACE_BOUND('',#185,.T.);
#146=FACE_BOUND('',#186,.T.);
#147=FACE_BOUND('',#187,.T.);
#148=FACE_BOUND('',#188,.T.);
#149=FACE_BOUND('',#189,.T.);
#150=FACE_BOUND('',#190,.T.);
#151=FACE_BOUND('',#191,.T.);
#152=FACE_BOUND('',#192,.T.);
#153=FACE_BOUND('',#193,.T.);
#154=FACE_BOUND('',#194,.T.);
#155=FACE_BOUND('',#195,.T.);
#156=FACE_BOUND('',#196,.T.);
#157=FACE_BOUND('',#197,.T.);
#158=FACE_BOUND('',#97,.T.);
#159=FACE_BOUND('',#198,.T.);
#160=FACE_BOUND('',#199,.T.);
#161=FACE_BOUND('',#200,.T.);
#162=FACE_BOUND('',#201,.T.);
#163=FACE_BOUND('',#202,.T.);
#164=FACE_BOUND('',#203,.T.);
#165=FACE_BOUND('',#204,.T.);
#166=FACE_BOUND('',#205,.T.);
#167=FACE_BOUND('',#206,.T.);
#168=FACE_BOUND('',#207,.T.);
#169=FACE_BOUND('',#209,.T.);
#170=FACE_BOUND('',#210,.T.);
#171=FACE_BOUND('',#211,.T.);
#172=FACE_BOUND('',#212,.T.);
#173=FACE_BOUND('',#213,.T.);
#174=FACE_BOUND('',#214,.T.);
#175=FACE_BOUND('',#215,.T.);
#176=FACE_BOUND('',#216,.T.);
#177=FACE_BOUND('',#217,.T.);
#178=FACE_BOUND('',#218,.T.);
#179=EDGE_LOOP('',(#219));
#180=EDGE_LOOP('',(#220));
#181=EDGE_LOOP('',(#221));
#182=EDGE_LOOP('',(#222));
#183=EDGE_LOOP('',(#223));
#184=EDGE_LOOP('',(#224));
#185=EDGE_LOOP('',(#225));
#186=EDGE_LOOP('',(#226));
#187=EDGE_LOOP('',(#227));
#188=EDGE_LOOP('',(#228));
#189=EDGE_LOOP('',(#229));
#190=EDGE_LOOP('',(#230));
#191=EDGE_LOOP('',(#231));
#192=EDGE_LOOP('',(#232));
#193=EDGE_LOOP('',(#233));
#194=EDGE_LOOP('',(#234));
#195=EDGE_LOOP('',(#235));
#196=EDGE_LOOP('',(#236));
#197=EDGE_LOOP('',(#237));
#198=EDGE_LOOP('',(#238));
#199=EDGE_LOOP('',(#239));
#200=EDGE_LOOP('',(#240));
#201=EDGE_LOOP('',(#241));
#202=EDGE_LOOP('',(#242));
#203=EDGE_LOOP('',(#243));
#204=EDGE_LOOP('',(#244));
#205=EDGE_LOOP('',(#245));
#206=EDGE_LOOP('',(#246));
#207=EDGE_LOOP('',(#247));
#208=EDGE_LOOP('',(#248));
#209=EDGE_LOOP('',(#249));
#210=EDGE_LOOP('',(#250));
#211=EDGE_LOOP('',(#251));
#212=EDGE_LOOP('',(#252));
#213=EDGE_LOOP('',(#253));
#214=EDGE_LOOP('',(#254));
#215=EDGE_LOOP('',(#255));
#216=EDGE_LOOP('',(#256));
#217=EDGE_LOOP('',(#257));
#218=EDGE_LOOP('',(#258));
#219=ORIENTED_EDGE('',*,*,#280,.T.);
#220=ORIENTED_EDGE('',*,*,#281,.F.);
#221=ORIENTED_EDGE('',*,*,#282,.T.);
#222=ORIENTED_EDGE('',*,*,#283,.F.);
#223=ORIENTED_EDGE('',*,*,#284,.T.);
#224=ORIENTED_EDGE('',*,*,#285,.F.);
#225=ORIENTED_EDGE('',*,*,#286,.F.);
#226=ORIENTED_EDGE('',*,*,#287,.T.);
#227=ORIENTED_EDGE('',*,*,#287,.F.);
#228=ORIENTED_EDGE('',*,*,#285,.T.);
#229=ORIENTED_EDGE('',*,*,#281,.T.);
#230=ORIENTED_EDGE('',*,*,#288,.F.);
#231=ORIENTED_EDGE('',*,*,#288,.T.);
#232=ORIENTED_EDGE('',*,*,#289,.F.);
#233=ORIENTED_EDGE('',*,*,#289,.T.);
#234=ORIENTED_EDGE('',*,*,#290,.F.);
#235=ORIENTED_EDGE('',*,*,#290,.T.);
#236=ORIENTED_EDGE('',*,*,#291,.F.);
#237=ORIENTED_EDGE('',*,*,#291,.T.);
#238=ORIENTED_EDGE('',*,*,#280,.F.);
#239=ORIENTED_EDGE('',*,*,#286,.T.);
#240=ORIENTED_EDGE('',*,*,#284,.F.);
#241=ORIENTED_EDGE('',*,*,#292,.T.);
#242=ORIENTED_EDGE('',*,*,#292,.F.);
#243=ORIENTED_EDGE('',*,*,#283,.T.);
#244=ORIENTED_EDGE('',*,*,#282,.F.);
#245=ORIENTED_EDGE('',*,*,#293,.T.);
#246=ORIENTED_EDGE('',*,*,#293,.F.);
#247=ORIENTED_EDGE('',*,*,#294,.T.);
#248=ORIENTED_EDGE('',*,*,#295,.T.);
#249=ORIENTED_EDGE('',*,*,#296,.F.);
#250=ORIENTED_EDGE('',*,*,#295,.F.);
#251=ORIENTED_EDGE('',*,*,#297,.F.);
#252=ORIENTED_EDGE('',*,*,#296,.T.);
#253=ORIENTED_EDGE('',*,*,#298,.F.);
#254=ORIENTED_EDGE('',*,*,#297,.T.);
#255=ORIENTED_EDGE('',*,*,#299,.F.);
#256=ORIENTED_EDGE('',*,*,#298,.T.);
#257=ORIENTED_EDGE('',*,*,#294,.F.);
#258=ORIENTED_EDGE('',*,*,#299,.T.);
#259=VERTEX_POINT('',#448);
#260=VERTEX_POINT('',#450);
#261=VERTEX_POINT('',#453);
#262=VERTEX_POINT('',#455);
#263=VERTEX_POINT('',#458);
#264=VERTEX_POINT('',#460);
#265=VERTEX_POINT('',#463);
#266=VERTEX_POINT('',#465);
#267=VERTEX_POINT('',#469);
#268=VERTEX_POINT('',#472);
#269=VERTEX_POINT('',#475);
#270=VERTEX_POINT('',#478);
#271=VERTEX_POINT('',#480);
#272=VERTEX_POINT('',#484);
#273=VERTEX_POINT('',#488);
#274=VERTEX_POINT('',#491);
#275=VERTEX_POINT('',#494);
#276=VERTEX_POINT('',#497);
#277=VERTEX_POINT('',#500);
#278=VERTEX_POINT('',#503);
#279=VERTEX_POINT('',#506);
#280=EDGE_CURVE('',#259,#259,#300,.T.);
#281=EDGE_CURVE('',#260,#260,#301,.T.);
#282=EDGE_CURVE('',#261,#261,#302,.T.);
#283=EDGE_CURVE('',#262,#262,#303,.T.);
#284=EDGE_CURVE('',#263,#263,#304,.T.);
#285=EDGE_CURVE('',#264,#264,#305,.T.);
#286=EDGE_CURVE('',#265,#265,#306,.T.);
#287=EDGE_CURVE('',#266,#266,#307,.T.);
#288=EDGE_CURVE('',#267,#267,#308,.T.);
#289=EDGE_CURVE('',#268,#268,#309,.T.);
#290=EDGE_CURVE('',#269,#269,#310,.T.);
#291=EDGE_CURVE('',#270,#270,#311,.T.);
#292=EDGE_CURVE('',#272,#272,#312,.T.);
#293=EDGE_CURVE('',#273,#273,#313,.T.);
#294=EDGE_CURVE('',#274,#274,#314,.T.);
#295=EDGE_CURVE('',#275,#275,#315,.T.);
#296=EDGE_CURVE('',#276,#276,#316,.T.);
#297=EDGE_CURVE('',#277,#277,#317,.T.);
#298=EDGE_CURVE('',#278,#278,#318,.T.);
#299=EDGE_CURVE('',#279,#279,#319,.T.);
#300=CIRCLE('',#321,3.);
#301=CIRCLE('',#322,2.37919265979627);
#302=CIRCLE('',#324,3.);
#303=CIRCLE('',#325,3.);
#304=CIRCLE('',#327,3.);
#305=CIRCLE('',#328,3.);
#306=CIRCLE('',#330,3.);
#307=CIRCLE('',#331,2.9);
#308=CIRCLE('',#334,2.13344670975656);
#309=CIRCLE('',#336,1.76779600548357);
#310=CIRCLE('',#338,2.2);
#311=CIRCLE('',#340,2.2);
#312=CIRCLE('',#344,2.9);
#313=CIRCLE('',#347,2.9);
#314=CIRCLE('',#349,3.);
#315=CIRCLE('',#351,3.);
#316=CIRCLE('',#353,3.);
#317=CIRCLE('',#355,1.75);
#318=CIRCLE('',#357,1.75);
#319=CIRCLE('',#359,3.);
#320=AXIS2_PLACEMENT_3D('',#446,#362,#363);
#321=AXIS2_PLACEMENT_3D('',#447,#364,#365);
#322=AXIS2_PLACEMENT_3D('',#449,#366,#367);
#323=AXIS2_PLACEMENT_3D('',#451,#368,#369);
#324=AXIS2_PLACEMENT_3D('',#452,#370,#371);
#325=AXIS2_PLACEMENT_3D('',#454,#372,#373);
#326=AXIS2_PLACEMENT_3D('',#456,#374,#375);
#327=AXIS2_PLACEMENT_3D('',#457,#376,#377);
#328=AXIS2_PLACEMENT_3D('',#459,#378,#379);
#329=AXIS2_PLACEMENT_3D('',#461,#380,#381);
#330=AXIS2_PLACEMENT_3D('',#462,#382,#383);
#331=AXIS2_PLACEMENT_3D('',#464,#384,#385);
#332=AXIS2_PLACEMENT_3D('',#466,#386,#387);
#333=AXIS2_PLACEMENT_3D('',#467,#388,#389);
#334=AXIS2_PLACEMENT_3D('',#468,#390,#391);
#335=AXIS2_PLACEMENT_3D('',#470,#392,#393);
#336=AXIS2_PLACEMENT_3D('',#471,#394,#395);
#337=AXIS2_PLACEMENT_3D('',#473,#396,#397);
#338=AXIS2_PLACEMENT_3D('',#474,#398,#399);
#339=AXIS2_PLACEMENT_3D('',#476,#400,#401);
#340=AXIS2_PLACEMENT_3D('',#477,#402,#403);
#341=AXIS2_PLACEMENT_3D('',#479,#404,#405);
#342=AXIS2_PLACEMENT_3D('',#481,#406,#407);
#343=AXIS2_PLACEMENT_3D('',#482,#408,#409);
#344=AXIS2_PLACEMENT_3D('',#483,#410,#411);
#345=AXIS2_PLACEMENT_3D('',#485,#412,#413);
#346=AXIS2_PLACEMENT_3D('',#486,#414,#415);
#347=AXIS2_PLACEMENT_3D('',#487,#416,#417);
#348=AXIS2_PLACEMENT_3D('',#489,#418,#419);
#349=AXIS2_PLACEMENT_3D('',#490,#420,#421);
#350=AXIS2_PLACEMENT_3D('',#492,#422,#423);
#351=AXIS2_PLACEMENT_3D('',#493,#424,#425);
#352=AXIS2_PLACEMENT_3D('',#495,#426,#427);
#353=AXIS2_PLACEMENT_3D('',#496,#428,#429);
#354=AXIS2_PLACEMENT_3D('',#498,#430,#431);
#355=AXIS2_PLACEMENT_3D('',#499,#432,#433);
#356=AXIS2_PLACEMENT_3D('',#501,#434,#435);
#357=AXIS2_PLACEMENT_3D('',#502,#436,#437);
#358=AXIS2_PLACEMENT_3D('',#504,#438,#439);
#359=AXIS2_PLACEMENT_3D('',#505,#440,#441);
#360=AXIS2_PLACEMENT_3D('',#507,#442,#443);
#361=AXIS2_PLACEMENT_3D('',#508,#444,#445);
#362=DIRECTION('',(0.,0.,1.));
#363=DIRECTION('',(1.,0.,0.));
#364=DIRECTION('',(0.,0.,-1.));
#365=DIRECTION('',(1.,0.,0.));
#366=DIRECTION('',(0.,0.,-1.));
#367=DIRECTION('',(-1.,0.,0.));
#368=DIRECTION('',(0.,0.,1.));
#369=DIRECTION('',(1.,0.,1.64992370318555E-016));
#370=DIRECTION('',(0.,0.,-1.));
#371=DIRECTION('',(-1.,0.,0.));
#372=DIRECTION('',(0.,0.,-1.));
#373=DIRECTION('',(-1.,0.,0.));
#374=DIRECTION('',(0.,0.,-1.));
#375=DIRECTION('',(-1.,0.,0.));
#376=DIRECTION('',(0.,0.,-1.));
#377=DIRECTION('',(-1.,0.,0.));
#378=DIRECTION('',(0.,0.,-1.));
#379=DIRECTION('',(-1.,0.,0.));
#380=DIRECTION('',(0.,0.,-1.));
#381=DIRECTION('',(-1.,0.,0.));
#382=DIRECTION('',(0.,0.,-1.));
#383=DIRECTION('',(-1.,0.,0.));
#384=DIRECTION('',(0.,0.,-1.));
#385=DIRECTION('',(-1.,0.,0.));
#386=DIRECTION('',(0.,0.,-1.));
#387=DIRECTION('',(-1.,0.,-5.83776222098085E-017));
#388=DIRECTION('',(0.,0.,1.));
#389=DIRECTION('',(1.,0.,3.8914534605662E-017));
#390=DIRECTION('',(0.,0.,-1.));
#391=DIRECTION('',(-1.,0.,0.));
#392=DIRECTION('',(0.,0.,-1.));
#393=DIRECTION('',(-1.,0.,-6.80488752001243E-018));
#394=DIRECTION('',(0.,0.,-1.));
#395=DIRECTION('',(-1.,0.,0.));
#396=DIRECTION('',(0.,0.,-1.));
#397=DIRECTION('',(-1.,0.,2.00739223583807E-016));
#398=DIRECTION('',(0.,0.,-1.));
#399=DIRECTION('',(1.,0.,0.));
#400=DIRECTION('',(0.,0.,1.));
#401=DIRECTION('',(1.,0.,-1.37651205683073E-016));
#402=DIRECTION('',(0.,0.,-1.));
#403=DIRECTION('',(-1.,0.,0.));
#404=DIRECTION('',(0.,0.,-1.));
#405=DIRECTION('',(-1.,0.,0.));
#406=DIRECTION('',(0.,0.,-1.));
#407=DIRECTION('',(-1.,0.,0.));
#408=DIRECTION('',(0.,0.,-1.));
#409=DIRECTION('',(-1.,0.,0.));
#410=DIRECTION('',(0.,0.,-1.));
#411=DIRECTION('',(-1.,0.,0.));
#412=DIRECTION('',(0.,0.,-1.));
#413=DIRECTION('',(-1.,0.,1.08106707795942E-016));
#414=DIRECTION('',(0.,0.,1.));
#415=DIRECTION('',(1.,0.,-1.25391278173795E-017));
#416=DIRECTION('',(0.,0.,-1.));
#417=DIRECTION('',(-1.,0.,0.));
#418=DIRECTION('',(0.,0.,-1.));
#419=DIRECTION('',(-1.,0.,5.31885002356036E-017));
#420=DIRECTION('',(0.,0.,-1.));
#421=DIRECTION('',(-1.,0.,0.));
#422=DIRECTION('',(0.,0.,1.));
#423=DIRECTION('',(1.,0.,4.71298252446316E-017));
#424=DIRECTION('',(0.,0.,1.));
#425=DIRECTION('',(1.,0.,0.));
#426=DIRECTION('',(0.,0.,1.));
#427=DIRECTION('',(1.,0.,0.));
#428=DIRECTION('',(0.,0.,-1.));
#429=DIRECTION('',(-1.,0.,0.));
#430=DIRECTION('',(0.,0.,-1.));
#431=DIRECTION('',(-1.,0.,0.));
#432=DIRECTION('',(0.,0.,-1.));
#433=DIRECTION('',(-1.,0.,0.));
#434=DIRECTION('',(0.,0.,1.));
#435=DIRECTION('',(1.,0.,-1.29715115352204E-017));
#436=DIRECTION('',(0.,0.,-1.));
#437=DIRECTION('',(-1.,0.,0.));
#438=DIRECTION('',(0.,0.,-1.));
#439=DIRECTION('',(-1.,0.,0.));
#440=DIRECTION('',(0.,0.,-1.));
#441=DIRECTION('',(-1.,0.,0.));
#442=DIRECTION('',(0.,0.,-1.));
#443=DIRECTION('',(-1.,0.,1.1256004585824E-017));
#444=DIRECTION('',(0.,0.,-1.));
#445=DIRECTION('',(-1.,0.,0.));
#446=CARTESIAN_POINT('',(0.,0.,0.));
#447=CARTESIAN_POINT('',(0.,0.,-12.0779028241478));
#448=CARTESIAN_POINT('',(3.,0.,-12.0779028241478));
#449=CARTESIAN_POINT('',(0.,0.,-15.4));
#450=CARTESIAN_POINT('',(-2.37919265979627,0.,-15.4));
#451=CARTESIAN_POINT('',(0.,0.,-15.4));
#452=CARTESIAN_POINT('',(0.,0.,-2.6));
#453=CARTESIAN_POINT('',(-3.,0.,-2.6));
#454=CARTESIAN_POINT('',(0.,0.,-2.9));
#455=CARTESIAN_POINT('',(-3.,0.,-2.9));
#456=CARTESIAN_POINT('',(0.,0.,7.9));
#457=CARTESIAN_POINT('',(0.,0.,-3.1));
#458=CARTESIAN_POINT('',(-3.,0.,-3.1));
#459=CARTESIAN_POINT('',(0.,0.,-3.4));
#460=CARTESIAN_POINT('',(-3.,0.,-3.4));
#461=CARTESIAN_POINT('',(0.,0.,7.9));
#462=CARTESIAN_POINT('',(0.,0.,-3.6));
#463=CARTESIAN_POINT('',(-3.,0.,-3.6));
#464=CARTESIAN_POINT('',(0.,0.,-3.5));
#465=CARTESIAN_POINT('',(-2.9,0.,-3.5));
#466=CARTESIAN_POINT('',(0.,0.,-3.5));
#467=CARTESIAN_POINT('',(0.,0.,-3.4));
#468=CARTESIAN_POINT('',(0.,0.,-15.3540769334748));
#469=CARTESIAN_POINT('',(-2.13344670975656,0.,-15.3540769334748));
#470=CARTESIAN_POINT('',(0.,0.,-15.3540769334748));
#471=CARTESIAN_POINT('',(0.,0.,-14.3166283504284));
#472=CARTESIAN_POINT('',(-1.76779600548357,0.,-14.3166283504284));
#473=CARTESIAN_POINT('',(0.,0.,-14.5693406322612));
#474=CARTESIAN_POINT('',(0.,0.,-12.0037954043749));
#475=CARTESIAN_POINT('',(2.2,0.,-12.0037954043749));
#476=CARTESIAN_POINT('',(0.,0.,-12.2041229854221));
#477=CARTESIAN_POINT('',(0.,0.,-5.));
#478=CARTESIAN_POINT('',(-2.2,0.,-5.));
#479=CARTESIAN_POINT('',(0.,0.,0.));
#480=CARTESIAN_POINT('',(0.,-3.02735144644972E-017,-4.19926548461436));
#481=CARTESIAN_POINT('',(0.,0.,-4.19926548461436));
#482=CARTESIAN_POINT('',(0.,0.,7.9));
#483=CARTESIAN_POINT('',(0.,0.,-3.));
#484=CARTESIAN_POINT('',(-2.9,0.,-3.));
#485=CARTESIAN_POINT('',(0.,0.,-3.));
#486=CARTESIAN_POINT('',(0.,0.,-2.9));
#487=CARTESIAN_POINT('',(0.,0.,-2.5));
#488=CARTESIAN_POINT('',(-2.9,0.,-2.5));
#489=CARTESIAN_POINT('',(0.,0.,-2.5));
#490=CARTESIAN_POINT('',(0.,0.,-2.4));
#491=CARTESIAN_POINT('',(-3.,0.,-2.4));
#492=CARTESIAN_POINT('',(0.,0.,-2.4));
#493=CARTESIAN_POINT('',(0.,0.,7.9));
#494=CARTESIAN_POINT('',(3.,0.,7.9));
#495=CARTESIAN_POINT('',(0.,0.,7.9));
#496=CARTESIAN_POINT('',(0.,0.,7.15));
#497=CARTESIAN_POINT('',(-3.,0.,7.15));
#498=CARTESIAN_POINT('',(0.,0.,7.9));
#499=CARTESIAN_POINT('',(0.,0.,5.9));
#500=CARTESIAN_POINT('',(-1.75,0.,5.9));
#501=CARTESIAN_POINT('',(0.,0.,7.15));
#502=CARTESIAN_POINT('',(0.,0.,0.900000000000001));
#503=CARTESIAN_POINT('',(-1.75,0.,0.900000000000001));
#504=CARTESIAN_POINT('',(0.,0.,7.9));
#505=CARTESIAN_POINT('',(0.,0.,-0.35));
#506=CARTESIAN_POINT('',(-3.,0.,-0.35));
#507=CARTESIAN_POINT('',(0.,0.,0.900000000000001));
#508=CARTESIAN_POINT('',(0.,0.,7.9));
#509=(
GEOMETRIC_REPRESENTATION_CONTEXT(3)
GLOBAL_UNCERTAINTY_ASSIGNED_CONTEXT((#510))
GLOBAL_UNIT_ASSIGNED_CONTEXT((#516,#512,#511))
REPRESENTATION_CONTEXT('C3D_N_02_040_0011','TOP_LEVEL_ASSEMBLY_PART')
);
#510=UNCERTAINTY_MEASURE_WITH_UNIT(LENGTH_MEASURE(2.E-005),#516,
'DISTANCE_ACCURACY_VALUE','Maximum Tolerance applied to model');
#511=(
NAMED_UNIT(*)
SI_UNIT($,.STERADIAN.)
SOLID_ANGLE_UNIT()
);
#512=(
CONVERSION_BASED_UNIT('DEGREE',#514)
NAMED_UNIT(#513)
PLANE_ANGLE_UNIT()
);
#513=DIMENSIONAL_EXPONENTS(0.,0.,0.,0.,0.,0.,0.);
#514=PLANE_ANGLE_MEASURE_WITH_UNIT(PLANE_ANGLE_MEASURE(0.0174532925),#515);
#515=(
NAMED_UNIT(*)
PLANE_ANGLE_UNIT()
SI_UNIT($,.RADIAN.)
);
#516=(
LENGTH_UNIT()
NAMED_UNIT(*)
SI_UNIT(.MILLI.,.METRE.)
);
ENDSEC;
END-ISO-10303-21;
