ISO-10303-21;
HEADER;
/* Generated by software containing ST-Developer
 * from STEP Tools, Inc. (www.steptools.com) 
 */
/* OPTION: using custom schema-name function */

FILE_DESCRIPTION(
/* description */ (''),
/* implementation_level */ '2;1');

FILE_NAME(
/* name */ 'C3D_N_02_040_0012.stp',
/* time_stamp */ '2016-03-03T08:38:19+01:00',
/* author */ (''),
/* organization */ (''),
/* preprocessor_version */ 'ST-DEVELOPER v15',
/* originating_system */ 'SIEMENS PLM Software NX 9.0',
/* authorisation */ '');

FILE_SCHEMA (('CONFIG_CONTROL_DESIGN'));
ENDSEC;

DATA;
#10=SHAPE_REPRESENTATION_RELATIONSHIP('None',
'relationship between n 02 040 0012nxm001-05-None and n 02 040 0012nxm
001-05-None',#92,#11);
#11=ADVANCED_BREP_SHAPE_REPRESENTATION('n 02 040 0012nxm001-05-None',(#93),
#329);
#12=CC_DESIGN_APPROVAL(#24,(#82));
#13=CC_DESIGN_APPROVAL(#25,(#84));
#14=CC_DESIGN_APPROVAL(#26,(#31));
#15=APPROVAL_PERSON_ORGANIZATION(#69,#24,#18);
#16=APPROVAL_PERSON_ORGANIZATION(#70,#25,#19);
#17=APPROVAL_PERSON_ORGANIZATION(#71,#26,#20);
#18=APPROVAL_ROLE('approver');
#19=APPROVAL_ROLE('approver');
#20=APPROVAL_ROLE('approver');
#21=APPROVAL_DATE_TIME(#39,#24);
#22=APPROVAL_DATE_TIME(#40,#25);
#23=APPROVAL_DATE_TIME(#41,#26);
#24=APPROVAL(#27,' ');
#25=APPROVAL(#28,' ');
#26=APPROVAL(#29,' ');
#27=APPROVAL_STATUS('not_yet_approved');
#28=APPROVAL_STATUS('not_yet_approved');
#29=APPROVAL_STATUS('not_yet_approved');
#30=CC_DESIGN_SECURITY_CLASSIFICATION(#31,(#84));
#31=SECURITY_CLASSIFICATION(' ',' ',#32);
#32=SECURITY_CLASSIFICATION_LEVEL('confidential');
#33=CC_DESIGN_DATE_AND_TIME_ASSIGNMENT(#37,#35,(#82));
#34=CC_DESIGN_DATE_AND_TIME_ASSIGNMENT(#38,#36,(#31));
#35=DATE_TIME_ROLE('creation_date');
#36=DATE_TIME_ROLE('classification_date');
#37=DATE_AND_TIME(#52,#42);
#38=DATE_AND_TIME(#53,#43);
#39=DATE_AND_TIME(#54,#44);
#40=DATE_AND_TIME(#55,#45);
#41=DATE_AND_TIME(#56,#46);
#42=LOCAL_TIME(0,0,0.,#47);
#43=LOCAL_TIME(0,0,0.,#48);
#44=LOCAL_TIME(0,0,0.,#49);
#45=LOCAL_TIME(0,0,0.,#50);
#46=LOCAL_TIME(0,0,0.,#51);
#47=COORDINATED_UNIVERSAL_TIME_OFFSET(0,0,.BEHIND.);
#48=COORDINATED_UNIVERSAL_TIME_OFFSET(0,0,.BEHIND.);
#49=COORDINATED_UNIVERSAL_TIME_OFFSET(0,0,.BEHIND.);
#50=COORDINATED_UNIVERSAL_TIME_OFFSET(0,0,.BEHIND.);
#51=COORDINATED_UNIVERSAL_TIME_OFFSET(0,0,.BEHIND.);
#52=CALENDAR_DATE(0,1,1);
#53=CALENDAR_DATE(0,1,1);
#54=CALENDAR_DATE(0,1,1);
#55=CALENDAR_DATE(0,1,1);
#56=CALENDAR_DATE(0,1,1);
#57=CC_DESIGN_PERSON_AND_ORGANIZATION_ASSIGNMENT(#65,#61,(#82,#84));
#58=CC_DESIGN_PERSON_AND_ORGANIZATION_ASSIGNMENT(#66,#62,(#86));
#59=CC_DESIGN_PERSON_AND_ORGANIZATION_ASSIGNMENT(#67,#63,(#84));
#60=CC_DESIGN_PERSON_AND_ORGANIZATION_ASSIGNMENT(#68,#64,(#31));
#61=PERSON_AND_ORGANIZATION_ROLE('creator');
#62=PERSON_AND_ORGANIZATION_ROLE('design_owner');
#63=PERSON_AND_ORGANIZATION_ROLE('design_supplier');
#64=PERSON_AND_ORGANIZATION_ROLE('classification_officer');
#65=PERSON_AND_ORGANIZATION(#79,#72);
#66=PERSON_AND_ORGANIZATION(#79,#73);
#67=PERSON_AND_ORGANIZATION(#79,#74);
#68=PERSON_AND_ORGANIZATION(#79,#75);
#69=PERSON_AND_ORGANIZATION(#79,#76);
#70=PERSON_AND_ORGANIZATION(#79,#77);
#71=PERSON_AND_ORGANIZATION(#79,#78);
#72=ORGANIZATION(' ',' ',' ');
#73=ORGANIZATION(' ',' ',' ');
#74=ORGANIZATION(' ',' ',' ');
#75=ORGANIZATION(' ',' ',' ');
#76=ORGANIZATION(' ',' ',' ');
#77=ORGANIZATION(' ',' ',' ');
#78=ORGANIZATION(' ',' ',' ');
#79=PERSON(' ',' ',' ',(' '),$,$);
#80=SHAPE_DEFINITION_REPRESENTATION(#81,#92);
#81=PRODUCT_DEFINITION_SHAPE('','',#82);
#82=PRODUCT_DEFINITION(' ','',#84,#83);
#83=DESIGN_CONTEXT('',#91,'design');
#84=PRODUCT_DEFINITION_FORMATION_WITH_SPECIFIED_SOURCE(' ',' ',#86,
 .NOT_KNOWN.);
#85=PRODUCT_RELATED_PRODUCT_CATEGORY('detail','',(#86));
#86=PRODUCT('n 02 040 0012nxm001-05','n 02 040 0012nxm001-05',' ',(#89));
#87=PRODUCT_CATEGORY('part',' ');
#88=PRODUCT_CATEGORY(' ','');
#89=MECHANICAL_CONTEXT(' ',#91,'mechanical');
#90=APPLICATION_PROTOCOL_DEFINITION('international standard',
'config_control_design',2010,#91);
#91=APPLICATION_CONTEXT(
'configuration controlled 3D designs of mechanical parts and assemblie
s');
#92=SHAPE_REPRESENTATION('n 02 040 0012nxm001-05-None',(#221),#329);
#93=MANIFOLD_SOLID_BREP('',#94);
#94=CLOSED_SHELL('',(#102,#103,#104,#105,#106,#107,#108,#109,#110,#111,
#112,#113));
#95=VERTEX_LOOP('',#195);
#96=PLANE('',#228);
#97=FACE_OUTER_BOUND('',#147,.T.);
#98=CYLINDRICAL_SURFACE('',#226,3.);
#99=CYLINDRICAL_SURFACE('',#231,2.2);
#100=CYLINDRICAL_SURFACE('',#240,2.05);
#101=CYLINDRICAL_SURFACE('',#244,3.);
#102=ADVANCED_FACE('',(#121,#122),#114,.T.);
#103=ADVANCED_FACE('',(#123,#124),#98,.T.);
#104=ADVANCED_FACE('',(#97),#96,.T.);
#105=ADVANCED_FACE('',(#125,#126),#99,.F.);
#106=ADVANCED_FACE('',(#127,#128),#115,.F.);
#107=ADVANCED_FACE('',(#129,#130),#116,.F.);
#108=ADVANCED_FACE('',(#131,#132),#117,.F.);
#109=ADVANCED_FACE('',(#133,#134),#118,.F.);
#110=ADVANCED_FACE('',(#135,#136),#100,.T.);
#111=ADVANCED_FACE('',(#137,#138),#119,.T.);
#112=ADVANCED_FACE('',(#139,#140),#120,.T.);
#113=ADVANCED_FACE('',(#141,#142),#101,.T.);
#114=CONICAL_SURFACE('',#224,2.37919265979627,10.5848982101026);
#115=CONICAL_SURFACE('',#233,2.16256436034942,10.5848982101026);
#116=CONICAL_SURFACE('',#235,1.8568649245034,19.4151017898974);
#117=CONICAL_SURFACE('',#236,2.13344670975656,79.4151017898973);
#118=CONICAL_SURFACE('',#237,3.02735144644972E-017,70.);
#119=CONICAL_SURFACE('',#241,2.05,45.);
#120=CONICAL_SURFACE('',#243,3.,45.);
#121=FACE_BOUND('',#143,.T.);
#122=FACE_BOUND('',#144,.T.);
#123=FACE_BOUND('',#145,.T.);
#124=FACE_BOUND('',#146,.T.);
#125=FACE_BOUND('',#148,.T.);
#126=FACE_BOUND('',#149,.T.);
#127=FACE_BOUND('',#150,.T.);
#128=FACE_BOUND('',#151,.T.);
#129=FACE_BOUND('',#152,.T.);
#130=FACE_BOUND('',#153,.T.);
#131=FACE_BOUND('',#154,.T.);
#132=FACE_BOUND('',#155,.T.);
#133=FACE_BOUND('',#156,.T.);
#134=FACE_BOUND('',#95,.T.);
#135=FACE_BOUND('',#157,.T.);
#136=FACE_BOUND('',#158,.T.);
#137=FACE_BOUND('',#159,.T.);
#138=FACE_BOUND('',#160,.T.);
#139=FACE_BOUND('',#161,.T.);
#140=FACE_BOUND('',#162,.T.);
#141=FACE_BOUND('',#163,.T.);
#142=FACE_BOUND('',#164,.T.);
#143=EDGE_LOOP('',(#165));
#144=EDGE_LOOP('',(#166));
#145=EDGE_LOOP('',(#167));
#146=EDGE_LOOP('',(#168));
#147=EDGE_LOOP('',(#169));
#148=EDGE_LOOP('',(#170));
#149=EDGE_LOOP('',(#171));
#150=EDGE_LOOP('',(#172));
#151=EDGE_LOOP('',(#173));
#152=EDGE_LOOP('',(#174));
#153=EDGE_LOOP('',(#175));
#154=EDGE_LOOP('',(#176));
#155=EDGE_LOOP('',(#177));
#156=EDGE_LOOP('',(#178));
#157=EDGE_LOOP('',(#179));
#158=EDGE_LOOP('',(#180));
#159=EDGE_LOOP('',(#181));
#160=EDGE_LOOP('',(#182));
#161=EDGE_LOOP('',(#183));
#162=EDGE_LOOP('',(#184));
#163=EDGE_LOOP('',(#185));
#164=EDGE_LOOP('',(#186));
#165=ORIENTED_EDGE('',*,*,#199,.F.);
#166=ORIENTED_EDGE('',*,*,#200,.T.);
#167=ORIENTED_EDGE('',*,*,#200,.F.);
#168=ORIENTED_EDGE('',*,*,#201,.T.);
#169=ORIENTED_EDGE('',*,*,#202,.T.);
#170=ORIENTED_EDGE('',*,*,#203,.T.);
#171=ORIENTED_EDGE('',*,*,#204,.F.);
#172=ORIENTED_EDGE('',*,*,#205,.T.);
#173=ORIENTED_EDGE('',*,*,#203,.F.);
#174=ORIENTED_EDGE('',*,*,#205,.F.);
#175=ORIENTED_EDGE('',*,*,#206,.T.);
#176=ORIENTED_EDGE('',*,*,#206,.F.);
#177=ORIENTED_EDGE('',*,*,#199,.T.);
#178=ORIENTED_EDGE('',*,*,#204,.T.);
#179=ORIENTED_EDGE('',*,*,#207,.F.);
#180=ORIENTED_EDGE('',*,*,#208,.T.);
#181=ORIENTED_EDGE('',*,*,#201,.F.);
#182=ORIENTED_EDGE('',*,*,#207,.T.);
#183=ORIENTED_EDGE('',*,*,#208,.F.);
#184=ORIENTED_EDGE('',*,*,#209,.T.);
#185=ORIENTED_EDGE('',*,*,#209,.F.);
#186=ORIENTED_EDGE('',*,*,#202,.F.);
#187=VERTEX_POINT('',#295);
#188=VERTEX_POINT('',#297);
#189=VERTEX_POINT('',#300);
#190=VERTEX_POINT('',#303);
#191=VERTEX_POINT('',#306);
#192=VERTEX_POINT('',#308);
#193=VERTEX_POINT('',#311);
#194=VERTEX_POINT('',#314);
#195=VERTEX_POINT('',#317);
#196=VERTEX_POINT('',#320);
#197=VERTEX_POINT('',#322);
#198=VERTEX_POINT('',#326);
#199=EDGE_CURVE('',#187,#187,#210,.T.);
#200=EDGE_CURVE('',#188,#188,#211,.T.);
#201=EDGE_CURVE('',#189,#189,#212,.T.);
#202=EDGE_CURVE('',#190,#190,#213,.T.);
#203=EDGE_CURVE('',#191,#191,#214,.T.);
#204=EDGE_CURVE('',#192,#192,#215,.T.);
#205=EDGE_CURVE('',#193,#193,#216,.T.);
#206=EDGE_CURVE('',#194,#194,#217,.T.);
#207=EDGE_CURVE('',#196,#196,#218,.T.);
#208=EDGE_CURVE('',#197,#197,#219,.T.);
#209=EDGE_CURVE('',#198,#198,#220,.T.);
#210=CIRCLE('',#222,2.37919265979627);
#211=CIRCLE('',#223,3.);
#212=CIRCLE('',#225,3.);
#213=CIRCLE('',#227,3.);
#214=CIRCLE('',#229,2.2);
#215=CIRCLE('',#230,2.2);
#216=CIRCLE('',#232,1.76779600548357);
#217=CIRCLE('',#234,2.13344670975656);
#218=CIRCLE('',#238,2.05);
#219=CIRCLE('',#239,2.05);
#220=CIRCLE('',#242,3.);
#221=AXIS2_PLACEMENT_3D('',#293,#245,#246);
#222=AXIS2_PLACEMENT_3D('',#294,#247,#248);
#223=AXIS2_PLACEMENT_3D('',#296,#249,#250);
#224=AXIS2_PLACEMENT_3D('',#298,#251,#252);
#225=AXIS2_PLACEMENT_3D('',#299,#253,#254);
#226=AXIS2_PLACEMENT_3D('',#301,#255,#256);
#227=AXIS2_PLACEMENT_3D('',#302,#257,#258);
#228=AXIS2_PLACEMENT_3D('',#304,#259,#260);
#229=AXIS2_PLACEMENT_3D('',#305,#261,#262);
#230=AXIS2_PLACEMENT_3D('',#307,#263,#264);
#231=AXIS2_PLACEMENT_3D('',#309,#265,#266);
#232=AXIS2_PLACEMENT_3D('',#310,#267,#268);
#233=AXIS2_PLACEMENT_3D('',#312,#269,#270);
#234=AXIS2_PLACEMENT_3D('',#313,#271,#272);
#235=AXIS2_PLACEMENT_3D('',#315,#273,#274);
#236=AXIS2_PLACEMENT_3D('',#316,#275,#276);
#237=AXIS2_PLACEMENT_3D('',#318,#277,#278);
#238=AXIS2_PLACEMENT_3D('',#319,#279,#280);
#239=AXIS2_PLACEMENT_3D('',#321,#281,#282);
#240=AXIS2_PLACEMENT_3D('',#323,#283,#284);
#241=AXIS2_PLACEMENT_3D('',#324,#285,#286);
#242=AXIS2_PLACEMENT_3D('',#325,#287,#288);
#243=AXIS2_PLACEMENT_3D('',#327,#289,#290);
#244=AXIS2_PLACEMENT_3D('',#328,#291,#292);
#245=DIRECTION('',(0.,0.,1.));
#246=DIRECTION('',(1.,0.,0.));
#247=DIRECTION('',(0.,0.,-1.));
#248=DIRECTION('',(-1.,0.,0.));
#249=DIRECTION('',(0.,0.,-1.));
#250=DIRECTION('',(1.,0.,0.));
#251=DIRECTION('',(0.,0.,1.));
#252=DIRECTION('',(1.,0.,1.64992370318555E-016));
#253=DIRECTION('',(0.,0.,-1.));
#254=DIRECTION('',(-1.,0.,0.));
#255=DIRECTION('',(0.,0.,-1.));
#256=DIRECTION('',(-1.,0.,0.));
#257=DIRECTION('',(0.,0.,1.));
#258=DIRECTION('',(1.,0.,0.));
#259=DIRECTION('',(0.,0.,1.));
#260=DIRECTION('',(1.,0.,0.));
#261=DIRECTION('',(0.,0.,-1.));
#262=DIRECTION('',(1.,0.,0.));
#263=DIRECTION('',(0.,0.,-1.));
#264=DIRECTION('',(-1.,0.,0.));
#265=DIRECTION('',(0.,0.,-1.));
#266=DIRECTION('',(-1.,0.,0.));
#267=DIRECTION('',(0.,0.,-1.));
#268=DIRECTION('',(-1.,0.,0.));
#269=DIRECTION('',(0.,0.,1.));
#270=DIRECTION('',(1.,0.,-1.37651205683073E-016));
#271=DIRECTION('',(0.,0.,-1.));
#272=DIRECTION('',(-1.,0.,0.));
#273=DIRECTION('',(0.,0.,-1.));
#274=DIRECTION('',(-1.,0.,2.00739223583807E-016));
#275=DIRECTION('',(0.,0.,-1.));
#276=DIRECTION('',(-1.,0.,-6.80488752001243E-018));
#277=DIRECTION('',(0.,0.,-1.));
#278=DIRECTION('',(-1.,0.,0.));
#279=DIRECTION('',(0.,0.,-1.));
#280=DIRECTION('',(-1.,0.,0.));
#281=DIRECTION('',(0.,0.,-1.));
#282=DIRECTION('',(-1.,0.,0.));
#283=DIRECTION('',(0.,0.,-1.));
#284=DIRECTION('',(-1.,0.,0.));
#285=DIRECTION('',(0.,0.,-1.));
#286=DIRECTION('',(-1.,0.,1.12526346927292E-017));
#287=DIRECTION('',(0.,0.,-1.));
#288=DIRECTION('',(-1.,0.,0.));
#289=DIRECTION('',(0.,0.,1.));
#290=DIRECTION('',(1.,0.,2.1619185892034E-017));
#291=DIRECTION('',(0.,0.,-1.));
#292=DIRECTION('',(-1.,0.,0.));
#293=CARTESIAN_POINT('',(0.,0.,0.));
#294=CARTESIAN_POINT('',(0.,0.,-15.4));
#295=CARTESIAN_POINT('',(-2.37919265979627,0.,-15.4));
#296=CARTESIAN_POINT('',(0.,0.,-12.0779028241478));
#297=CARTESIAN_POINT('',(3.,0.,-12.0779028241478));
#298=CARTESIAN_POINT('',(0.,0.,-15.4));
#299=CARTESIAN_POINT('',(0.,0.,-0.0500000000000014));
#300=CARTESIAN_POINT('',(-3.,0.,-0.0500000000000014));
#301=CARTESIAN_POINT('',(0.,0.,7.9));
#302=CARTESIAN_POINT('',(0.,0.,7.9));
#303=CARTESIAN_POINT('',(3.,0.,7.9));
#304=CARTESIAN_POINT('',(0.,0.,7.9));
#305=CARTESIAN_POINT('',(0.,0.,-12.0037954043749));
#306=CARTESIAN_POINT('',(2.2,0.,-12.0037954043749));
#307=CARTESIAN_POINT('',(0.,0.,-5.));
#308=CARTESIAN_POINT('',(-2.2,0.,-5.));
#309=CARTESIAN_POINT('',(0.,0.,0.));
#310=CARTESIAN_POINT('',(0.,0.,-14.3166283504284));
#311=CARTESIAN_POINT('',(-1.76779600548357,0.,-14.3166283504284));
#312=CARTESIAN_POINT('',(0.,0.,-12.2041229854221));
#313=CARTESIAN_POINT('',(0.,0.,-15.3540769334748));
#314=CARTESIAN_POINT('',(-2.13344670975656,0.,-15.3540769334748));
#315=CARTESIAN_POINT('',(0.,0.,-14.5693406322612));
#316=CARTESIAN_POINT('',(0.,0.,-15.3540769334748));
#317=CARTESIAN_POINT('',(0.,-3.02735144644972E-017,-4.19926548461436));
#318=CARTESIAN_POINT('',(0.,0.,-4.19926548461436));
#319=CARTESIAN_POINT('',(0.,0.,0.900000000000001));
#320=CARTESIAN_POINT('',(-2.05,0.,0.900000000000001));
#321=CARTESIAN_POINT('',(0.,0.,5.9));
#322=CARTESIAN_POINT('',(-2.05,0.,5.9));
#323=CARTESIAN_POINT('',(0.,0.,7.9));
#324=CARTESIAN_POINT('',(0.,0.,0.900000000000001));
#325=CARTESIAN_POINT('',(0.,0.,6.85));
#326=CARTESIAN_POINT('',(-3.,0.,6.85));
#327=CARTESIAN_POINT('',(0.,0.,6.85));
#328=CARTESIAN_POINT('',(0.,0.,7.9));
#329=(
GEOMETRIC_REPRESENTATION_CONTEXT(3)
GLOBAL_UNCERTAINTY_ASSIGNED_CONTEXT((#330))
GLOBAL_UNIT_ASSIGNED_CONTEXT((#336,#332,#331))
REPRESENTATION_CONTEXT('C3D_N_02_040_0012','TOP_LEVEL_ASSEMBLY_PART')
);
#330=UNCERTAINTY_MEASURE_WITH_UNIT(LENGTH_MEASURE(2.E-005),#336,
'DISTANCE_ACCURACY_VALUE','Maximum Tolerance applied to model');
#331=(
NAMED_UNIT(*)
SI_UNIT($,.STERADIAN.)
SOLID_ANGLE_UNIT()
);
#332=(
CONVERSION_BASED_UNIT('DEGREE',#334)
NAMED_UNIT(#333)
PLANE_ANGLE_UNIT()
);
#333=DIMENSIONAL_EXPONENTS(0.,0.,0.,0.,0.,0.,0.);
#334=PLANE_ANGLE_MEASURE_WITH_UNIT(PLANE_ANGLE_MEASURE(0.0174532925),#335);
#335=(
NAMED_UNIT(*)
PLANE_ANGLE_UNIT()
SI_UNIT($,.RADIAN.)
);
#336=(
LENGTH_UNIT()
NAMED_UNIT(*)
SI_UNIT(.MILLI.,.METRE.)
);
ENDSEC;
END-ISO-10303-21;
