ISO-10303-21;
HEADER;
/* Generated by software containing ST-Developer
 * from STEP Tools, Inc. (www.steptools.com) 
 */
/* OPTION: using custom schema-name function */

FILE_DESCRIPTION(
/* description */ (''),
/* implementation_level */ '2;1');

FILE_NAME(
/* name */ 'C3D_N_02_040_0013.stp',
/* time_stamp */ '2016-03-03T08:44:34+01:00',
/* author */ (''),
/* organization */ (''),
/* preprocessor_version */ 'ST-DEVELOPER v15',
/* originating_system */ 'SIEMENS PLM Software NX 9.0',
/* authorisation */ '');

FILE_SCHEMA (('CONFIG_CONTROL_DESIGN'));
ENDSEC;

DATA;
#10=SHAPE_REPRESENTATION_RELATIONSHIP('None',
'relationship between n 02 040 0013nxm001-05-None and n 02 040 0013nxm
001-05-None',#92,#11);
#11=ADVANCED_BREP_SHAPE_REPRESENTATION('n 02 040 0013nxm001-05-None',(#93),
#389);
#12=CC_DESIGN_APPROVAL(#24,(#82));
#13=CC_DESIGN_APPROVAL(#25,(#84));
#14=CC_DESIGN_APPROVAL(#26,(#31));
#15=APPROVAL_PERSON_ORGANIZATION(#69,#24,#18);
#16=APPROVAL_PERSON_ORGANIZATION(#70,#25,#19);
#17=APPROVAL_PERSON_ORGANIZATION(#71,#26,#20);
#18=APPROVAL_ROLE('approver');
#19=APPROVAL_ROLE('approver');
#20=APPROVAL_ROLE('approver');
#21=APPROVAL_DATE_TIME(#39,#24);
#22=APPROVAL_DATE_TIME(#40,#25);
#23=APPROVAL_DATE_TIME(#41,#26);
#24=APPROVAL(#27,' ');
#25=APPROVAL(#28,' ');
#26=APPROVAL(#29,' ');
#27=APPROVAL_STATUS('not_yet_approved');
#28=APPROVAL_STATUS('not_yet_approved');
#29=APPROVAL_STATUS('not_yet_approved');
#30=CC_DESIGN_SECURITY_CLASSIFICATION(#31,(#84));
#31=SECURITY_CLASSIFICATION(' ',' ',#32);
#32=SECURITY_CLASSIFICATION_LEVEL('confidential');
#33=CC_DESIGN_DATE_AND_TIME_ASSIGNMENT(#37,#35,(#82));
#34=CC_DESIGN_DATE_AND_TIME_ASSIGNMENT(#38,#36,(#31));
#35=DATE_TIME_ROLE('creation_date');
#36=DATE_TIME_ROLE('classification_date');
#37=DATE_AND_TIME(#52,#42);
#38=DATE_AND_TIME(#53,#43);
#39=DATE_AND_TIME(#54,#44);
#40=DATE_AND_TIME(#55,#45);
#41=DATE_AND_TIME(#56,#46);
#42=LOCAL_TIME(0,0,0.,#47);
#43=LOCAL_TIME(0,0,0.,#48);
#44=LOCAL_TIME(0,0,0.,#49);
#45=LOCAL_TIME(0,0,0.,#50);
#46=LOCAL_TIME(0,0,0.,#51);
#47=COORDINATED_UNIVERSAL_TIME_OFFSET(0,0,.BEHIND.);
#48=COORDINATED_UNIVERSAL_TIME_OFFSET(0,0,.BEHIND.);
#49=COORDINATED_UNIVERSAL_TIME_OFFSET(0,0,.BEHIND.);
#50=COORDINATED_UNIVERSAL_TIME_OFFSET(0,0,.BEHIND.);
#51=COORDINATED_UNIVERSAL_TIME_OFFSET(0,0,.BEHIND.);
#52=CALENDAR_DATE(0,1,1);
#53=CALENDAR_DATE(0,1,1);
#54=CALENDAR_DATE(0,1,1);
#55=CALENDAR_DATE(0,1,1);
#56=CALENDAR_DATE(0,1,1);
#57=CC_DESIGN_PERSON_AND_ORGANIZATION_ASSIGNMENT(#65,#61,(#82,#84));
#58=CC_DESIGN_PERSON_AND_ORGANIZATION_ASSIGNMENT(#66,#62,(#86));
#59=CC_DESIGN_PERSON_AND_ORGANIZATION_ASSIGNMENT(#67,#63,(#84));
#60=CC_DESIGN_PERSON_AND_ORGANIZATION_ASSIGNMENT(#68,#64,(#31));
#61=PERSON_AND_ORGANIZATION_ROLE('creator');
#62=PERSON_AND_ORGANIZATION_ROLE('design_owner');
#63=PERSON_AND_ORGANIZATION_ROLE('design_supplier');
#64=PERSON_AND_ORGANIZATION_ROLE('classification_officer');
#65=PERSON_AND_ORGANIZATION(#79,#72);
#66=PERSON_AND_ORGANIZATION(#79,#73);
#67=PERSON_AND_ORGANIZATION(#79,#74);
#68=PERSON_AND_ORGANIZATION(#79,#75);
#69=PERSON_AND_ORGANIZATION(#79,#76);
#70=PERSON_AND_ORGANIZATION(#79,#77);
#71=PERSON_AND_ORGANIZATION(#79,#78);
#72=ORGANIZATION(' ',' ',' ');
#73=ORGANIZATION(' ',' ',' ');
#74=ORGANIZATION(' ',' ',' ');
#75=ORGANIZATION(' ',' ',' ');
#76=ORGANIZATION(' ',' ',' ');
#77=ORGANIZATION(' ',' ',' ');
#78=ORGANIZATION(' ',' ',' ');
#79=PERSON(' ',' ',' ',(' '),$,$);
#80=SHAPE_DEFINITION_REPRESENTATION(#81,#92);
#81=PRODUCT_DEFINITION_SHAPE('','',#82);
#82=PRODUCT_DEFINITION(' ','',#84,#83);
#83=DESIGN_CONTEXT('',#91,'design');
#84=PRODUCT_DEFINITION_FORMATION_WITH_SPECIFIED_SOURCE(' ',' ',#86,
 .NOT_KNOWN.);
#85=PRODUCT_RELATED_PRODUCT_CATEGORY('detail','',(#86));
#86=PRODUCT('n 02 040 0013nxm001-05','n 02 040 0013nxm001-05',' ',(#89));
#87=PRODUCT_CATEGORY('part',' ');
#88=PRODUCT_CATEGORY(' ','');
#89=MECHANICAL_CONTEXT(' ',#91,'mechanical');
#90=APPLICATION_PROTOCOL_DEFINITION('international standard',
'config_control_design',2010,#91);
#91=APPLICATION_CONTEXT(
'configuration controlled 3D designs of mechanical parts and assemblie
s');
#92=SHAPE_REPRESENTATION('n 02 040 0013nxm001-05-None',(#254),#389);
#93=MANIFOLD_SOLID_BREP('',#94);
#94=CLOSED_SHELL('',(#103,#104,#105,#106,#107,#108,#109,#110,#111,#112,
#113,#114,#115,#116,#117));
#95=VERTEX_LOOP('',#225);
#96=PLANE('',#262);
#97=FACE_OUTER_BOUND('',#159,.T.);
#98=CYLINDRICAL_SURFACE('',#260,3.);
#99=CYLINDRICAL_SURFACE('',#265,2.5);
#100=CYLINDRICAL_SURFACE('',#269,3.);
#101=CYLINDRICAL_SURFACE('',#281,2.2);
#102=CYLINDRICAL_SURFACE('',#283,3.);
#103=ADVANCED_FACE('',(#127,#128),#118,.T.);
#104=ADVANCED_FACE('',(#129,#130),#98,.T.);
#105=ADVANCED_FACE('',(#97),#96,.T.);
#106=ADVANCED_FACE('',(#131,#132),#99,.T.);
#107=ADVANCED_FACE('',(#133,#134),#119,.T.);
#108=ADVANCED_FACE('',(#135,#136),#120,.T.);
#109=ADVANCED_FACE('',(#137,#138),#100,.T.);
#110=ADVANCED_FACE('',(#139,#140),#121,.T.);
#111=ADVANCED_FACE('',(#141,#142),#122,.T.);
#112=ADVANCED_FACE('',(#143,#144),#123,.F.);
#113=ADVANCED_FACE('',(#145,#146),#124,.F.);
#114=ADVANCED_FACE('',(#147,#148),#125,.F.);
#115=ADVANCED_FACE('',(#149,#150),#101,.F.);
#116=ADVANCED_FACE('',(#151,#152),#126,.F.);
#117=ADVANCED_FACE('',(#153,#154),#102,.T.);
#118=CONICAL_SURFACE('',#257,2.37919265979627,10.5848982101026);
#119=CONICAL_SURFACE('',#266,2.5,45.);
#120=CONICAL_SURFACE('',#268,3.,45.);
#121=CONICAL_SURFACE('',#272,2.9,45.0000000000001);
#122=CONICAL_SURFACE('',#273,3.,44.9999999999994);
#123=CONICAL_SURFACE('',#275,2.13344670975656,79.4151017898973);
#124=CONICAL_SURFACE('',#277,1.8568649245034,19.4151017898974);
#125=CONICAL_SURFACE('',#279,2.16256436034942,10.5848982101026);
#126=CONICAL_SURFACE('',#282,3.02735144644972E-017,70.);
#127=FACE_BOUND('',#155,.T.);
#128=FACE_BOUND('',#156,.T.);
#129=FACE_BOUND('',#157,.T.);
#130=FACE_BOUND('',#158,.T.);
#131=FACE_BOUND('',#160,.T.);
#132=FACE_BOUND('',#161,.T.);
#133=FACE_BOUND('',#162,.T.);
#134=FACE_BOUND('',#163,.T.);
#135=FACE_BOUND('',#164,.T.);
#136=FACE_BOUND('',#165,.T.);
#137=FACE_BOUND('',#166,.T.);
#138=FACE_BOUND('',#167,.T.);
#139=FACE_BOUND('',#168,.T.);
#140=FACE_BOUND('',#169,.T.);
#141=FACE_BOUND('',#170,.T.);
#142=FACE_BOUND('',#171,.T.);
#143=FACE_BOUND('',#172,.T.);
#144=FACE_BOUND('',#173,.T.);
#145=FACE_BOUND('',#174,.T.);
#146=FACE_BOUND('',#175,.T.);
#147=FACE_BOUND('',#176,.T.);
#148=FACE_BOUND('',#177,.T.);
#149=FACE_BOUND('',#178,.T.);
#150=FACE_BOUND('',#179,.T.);
#151=FACE_BOUND('',#180,.T.);
#152=FACE_BOUND('',#95,.T.);
#153=FACE_BOUND('',#181,.T.);
#154=FACE_BOUND('',#182,.T.);
#155=EDGE_LOOP('',(#183));
#156=EDGE_LOOP('',(#184));
#157=EDGE_LOOP('',(#185));
#158=EDGE_LOOP('',(#186));
#159=EDGE_LOOP('',(#187));
#160=EDGE_LOOP('',(#188));
#161=EDGE_LOOP('',(#189));
#162=EDGE_LOOP('',(#190));
#163=EDGE_LOOP('',(#191));
#164=EDGE_LOOP('',(#192));
#165=EDGE_LOOP('',(#193));
#166=EDGE_LOOP('',(#194));
#167=EDGE_LOOP('',(#195));
#168=EDGE_LOOP('',(#196));
#169=EDGE_LOOP('',(#197));
#170=EDGE_LOOP('',(#198));
#171=EDGE_LOOP('',(#199));
#172=EDGE_LOOP('',(#200));
#173=EDGE_LOOP('',(#201));
#174=EDGE_LOOP('',(#202));
#175=EDGE_LOOP('',(#203));
#176=EDGE_LOOP('',(#204));
#177=EDGE_LOOP('',(#205));
#178=EDGE_LOOP('',(#206));
#179=EDGE_LOOP('',(#207));
#180=EDGE_LOOP('',(#208));
#181=EDGE_LOOP('',(#209));
#182=EDGE_LOOP('',(#210));
#183=ORIENTED_EDGE('',*,*,#226,.T.);
#184=ORIENTED_EDGE('',*,*,#227,.F.);
#185=ORIENTED_EDGE('',*,*,#228,.F.);
#186=ORIENTED_EDGE('',*,*,#229,.T.);
#187=ORIENTED_EDGE('',*,*,#230,.T.);
#188=ORIENTED_EDGE('',*,*,#231,.F.);
#189=ORIENTED_EDGE('',*,*,#232,.T.);
#190=ORIENTED_EDGE('',*,*,#229,.F.);
#191=ORIENTED_EDGE('',*,*,#231,.T.);
#192=ORIENTED_EDGE('',*,*,#232,.F.);
#193=ORIENTED_EDGE('',*,*,#233,.T.);
#194=ORIENTED_EDGE('',*,*,#233,.F.);
#195=ORIENTED_EDGE('',*,*,#230,.F.);
#196=ORIENTED_EDGE('',*,*,#234,.F.);
#197=ORIENTED_EDGE('',*,*,#235,.T.);
#198=ORIENTED_EDGE('',*,*,#235,.F.);
#199=ORIENTED_EDGE('',*,*,#228,.T.);
#200=ORIENTED_EDGE('',*,*,#227,.T.);
#201=ORIENTED_EDGE('',*,*,#236,.F.);
#202=ORIENTED_EDGE('',*,*,#236,.T.);
#203=ORIENTED_EDGE('',*,*,#237,.F.);
#204=ORIENTED_EDGE('',*,*,#237,.T.);
#205=ORIENTED_EDGE('',*,*,#238,.F.);
#206=ORIENTED_EDGE('',*,*,#238,.T.);
#207=ORIENTED_EDGE('',*,*,#239,.F.);
#208=ORIENTED_EDGE('',*,*,#239,.T.);
#209=ORIENTED_EDGE('',*,*,#226,.F.);
#210=ORIENTED_EDGE('',*,*,#234,.T.);
#211=VERTEX_POINT('',#346);
#212=VERTEX_POINT('',#348);
#213=VERTEX_POINT('',#351);
#214=VERTEX_POINT('',#353);
#215=VERTEX_POINT('',#356);
#216=VERTEX_POINT('',#359);
#217=VERTEX_POINT('',#361);
#218=VERTEX_POINT('',#365);
#219=VERTEX_POINT('',#369);
#220=VERTEX_POINT('',#371);
#221=VERTEX_POINT('',#375);
#222=VERTEX_POINT('',#378);
#223=VERTEX_POINT('',#381);
#224=VERTEX_POINT('',#384);
#225=VERTEX_POINT('',#386);
#226=EDGE_CURVE('',#211,#211,#240,.T.);
#227=EDGE_CURVE('',#212,#212,#241,.T.);
#228=EDGE_CURVE('',#213,#213,#242,.T.);
#229=EDGE_CURVE('',#214,#214,#243,.T.);
#230=EDGE_CURVE('',#215,#215,#244,.T.);
#231=EDGE_CURVE('',#216,#216,#245,.T.);
#232=EDGE_CURVE('',#217,#217,#246,.T.);
#233=EDGE_CURVE('',#218,#218,#247,.T.);
#234=EDGE_CURVE('',#219,#219,#248,.T.);
#235=EDGE_CURVE('',#220,#220,#249,.T.);
#236=EDGE_CURVE('',#221,#221,#250,.T.);
#237=EDGE_CURVE('',#222,#222,#251,.T.);
#238=EDGE_CURVE('',#223,#223,#252,.T.);
#239=EDGE_CURVE('',#224,#224,#253,.T.);
#240=CIRCLE('',#255,3.);
#241=CIRCLE('',#256,2.37919265979627);
#242=CIRCLE('',#258,3.);
#243=CIRCLE('',#259,3.);
#244=CIRCLE('',#261,3.);
#245=CIRCLE('',#263,2.5);
#246=CIRCLE('',#264,2.5);
#247=CIRCLE('',#267,3.);
#248=CIRCLE('',#270,3.);
#249=CIRCLE('',#271,2.9);
#250=CIRCLE('',#274,2.13344670975656);
#251=CIRCLE('',#276,1.76779600548357);
#252=CIRCLE('',#278,2.2);
#253=CIRCLE('',#280,2.2);
#254=AXIS2_PLACEMENT_3D('',#344,#284,#285);
#255=AXIS2_PLACEMENT_3D('',#345,#286,#287);
#256=AXIS2_PLACEMENT_3D('',#347,#288,#289);
#257=AXIS2_PLACEMENT_3D('',#349,#290,#291);
#258=AXIS2_PLACEMENT_3D('',#350,#292,#293);
#259=AXIS2_PLACEMENT_3D('',#352,#294,#295);
#260=AXIS2_PLACEMENT_3D('',#354,#296,#297);
#261=AXIS2_PLACEMENT_3D('',#355,#298,#299);
#262=AXIS2_PLACEMENT_3D('',#357,#300,#301);
#263=AXIS2_PLACEMENT_3D('',#358,#302,#303);
#264=AXIS2_PLACEMENT_3D('',#360,#304,#305);
#265=AXIS2_PLACEMENT_3D('',#362,#306,#307);
#266=AXIS2_PLACEMENT_3D('',#363,#308,#309);
#267=AXIS2_PLACEMENT_3D('',#364,#310,#311);
#268=AXIS2_PLACEMENT_3D('',#366,#312,#313);
#269=AXIS2_PLACEMENT_3D('',#367,#314,#315);
#270=AXIS2_PLACEMENT_3D('',#368,#316,#317);
#271=AXIS2_PLACEMENT_3D('',#370,#318,#319);
#272=AXIS2_PLACEMENT_3D('',#372,#320,#321);
#273=AXIS2_PLACEMENT_3D('',#373,#322,#323);
#274=AXIS2_PLACEMENT_3D('',#374,#324,#325);
#275=AXIS2_PLACEMENT_3D('',#376,#326,#327);
#276=AXIS2_PLACEMENT_3D('',#377,#328,#329);
#277=AXIS2_PLACEMENT_3D('',#379,#330,#331);
#278=AXIS2_PLACEMENT_3D('',#380,#332,#333);
#279=AXIS2_PLACEMENT_3D('',#382,#334,#335);
#280=AXIS2_PLACEMENT_3D('',#383,#336,#337);
#281=AXIS2_PLACEMENT_3D('',#385,#338,#339);
#282=AXIS2_PLACEMENT_3D('',#387,#340,#341);
#283=AXIS2_PLACEMENT_3D('',#388,#342,#343);
#284=DIRECTION('',(0.,0.,1.));
#285=DIRECTION('',(1.,0.,0.));
#286=DIRECTION('',(0.,0.,-1.));
#287=DIRECTION('',(1.,0.,0.));
#288=DIRECTION('',(0.,0.,-1.));
#289=DIRECTION('',(-1.,0.,0.));
#290=DIRECTION('',(0.,0.,1.));
#291=DIRECTION('',(1.,0.,1.64992370318555E-016));
#292=DIRECTION('',(0.,0.,-1.));
#293=DIRECTION('',(-1.,0.,0.));
#294=DIRECTION('',(0.,0.,-1.));
#295=DIRECTION('',(-1.,0.,0.));
#296=DIRECTION('',(0.,0.,-1.));
#297=DIRECTION('',(-1.,0.,0.));
#298=DIRECTION('',(0.,0.,1.));
#299=DIRECTION('',(1.,0.,0.));
#300=DIRECTION('',(0.,0.,1.));
#301=DIRECTION('',(1.,0.,0.));
#302=DIRECTION('',(0.,0.,-1.));
#303=DIRECTION('',(-1.,0.,0.));
#304=DIRECTION('',(0.,0.,-1.));
#305=DIRECTION('',(-1.,0.,0.));
#306=DIRECTION('',(0.,0.,-1.));
#307=DIRECTION('',(-1.,0.,0.));
#308=DIRECTION('',(0.,0.,-1.));
#309=DIRECTION('',(-1.,0.,1.12475836347623E-017));
#310=DIRECTION('',(0.,0.,-1.));
#311=DIRECTION('',(-1.,0.,0.));
#312=DIRECTION('',(0.,0.,1.));
#313=DIRECTION('',(1.,0.,-4.06440694770239E-017));
#314=DIRECTION('',(0.,0.,-1.));
#315=DIRECTION('',(-1.,0.,0.));
#316=DIRECTION('',(0.,0.,-1.));
#317=DIRECTION('',(-1.,0.,0.));
#318=DIRECTION('',(0.,0.,-1.));
#319=DIRECTION('',(-1.,0.,0.));
#320=DIRECTION('',(0.,0.,-1.));
#321=DIRECTION('',(-1.,0.,-5.83776222098085E-017));
#322=DIRECTION('',(0.,0.,1.));
#323=DIRECTION('',(1.,0.,3.8914534605662E-017));
#324=DIRECTION('',(0.,0.,-1.));
#325=DIRECTION('',(-1.,0.,0.));
#326=DIRECTION('',(0.,0.,-1.));
#327=DIRECTION('',(-1.,0.,-6.80488752001243E-018));
#328=DIRECTION('',(0.,0.,-1.));
#329=DIRECTION('',(-1.,0.,0.));
#330=DIRECTION('',(0.,0.,-1.));
#331=DIRECTION('',(-1.,0.,2.00739223583807E-016));
#332=DIRECTION('',(0.,0.,-1.));
#333=DIRECTION('',(1.,0.,0.));
#334=DIRECTION('',(0.,0.,1.));
#335=DIRECTION('',(1.,0.,-1.37651205683073E-016));
#336=DIRECTION('',(0.,0.,-1.));
#337=DIRECTION('',(-1.,0.,0.));
#338=DIRECTION('',(0.,0.,-1.));
#339=DIRECTION('',(-1.,0.,0.));
#340=DIRECTION('',(0.,0.,-1.));
#341=DIRECTION('',(-1.,0.,0.));
#342=DIRECTION('',(0.,0.,-1.));
#343=DIRECTION('',(-1.,0.,0.));
#344=CARTESIAN_POINT('',(0.,0.,0.));
#345=CARTESIAN_POINT('',(0.,0.,-12.0779028241478));
#346=CARTESIAN_POINT('',(3.,0.,-12.0779028241478));
#347=CARTESIAN_POINT('',(0.,0.,-15.4));
#348=CARTESIAN_POINT('',(-2.37919265979627,0.,-15.4));
#349=CARTESIAN_POINT('',(0.,0.,-15.4));
#350=CARTESIAN_POINT('',(0.,0.,-3.4));
#351=CARTESIAN_POINT('',(-3.,0.,-3.4));
#352=CARTESIAN_POINT('',(0.,0.,0.399999999999998));
#353=CARTESIAN_POINT('',(-3.,0.,0.399999999999998));
#354=CARTESIAN_POINT('',(0.,0.,7.9));
#355=CARTESIAN_POINT('',(0.,0.,7.9));
#356=CARTESIAN_POINT('',(3.,0.,7.9));
#357=CARTESIAN_POINT('',(0.,0.,7.9));
#358=CARTESIAN_POINT('',(0.,0.,0.900000000000001));
#359=CARTESIAN_POINT('',(-2.5,0.,0.900000000000001));
#360=CARTESIAN_POINT('',(0.,0.,5.9));
#361=CARTESIAN_POINT('',(-2.5,0.,5.9));
#362=CARTESIAN_POINT('',(0.,0.,7.9));
#363=CARTESIAN_POINT('',(0.,0.,0.900000000000001));
#364=CARTESIAN_POINT('',(0.,0.,6.4));
#365=CARTESIAN_POINT('',(-3.,0.,6.4));
#366=CARTESIAN_POINT('',(0.,0.,6.4));
#367=CARTESIAN_POINT('',(0.,0.,7.9));
#368=CARTESIAN_POINT('',(0.,0.,-3.6));
#369=CARTESIAN_POINT('',(-3.,0.,-3.6));
#370=CARTESIAN_POINT('',(0.,0.,-3.5));
#371=CARTESIAN_POINT('',(-2.9,0.,-3.5));
#372=CARTESIAN_POINT('',(0.,0.,-3.5));
#373=CARTESIAN_POINT('',(0.,0.,-3.4));
#374=CARTESIAN_POINT('',(0.,0.,-15.3540769334748));
#375=CARTESIAN_POINT('',(-2.13344670975656,0.,-15.3540769334748));
#376=CARTESIAN_POINT('',(0.,0.,-15.3540769334748));
#377=CARTESIAN_POINT('',(0.,0.,-14.3166283504284));
#378=CARTESIAN_POINT('',(-1.76779600548357,0.,-14.3166283504284));
#379=CARTESIAN_POINT('',(0.,0.,-14.5693406322612));
#380=CARTESIAN_POINT('',(0.,0.,-12.0037954043749));
#381=CARTESIAN_POINT('',(2.2,0.,-12.0037954043749));
#382=CARTESIAN_POINT('',(0.,0.,-12.2041229854221));
#383=CARTESIAN_POINT('',(0.,0.,-5.));
#384=CARTESIAN_POINT('',(-2.2,0.,-5.));
#385=CARTESIAN_POINT('',(0.,0.,0.));
#386=CARTESIAN_POINT('',(0.,-3.02735144644972E-017,-4.19926548461436));
#387=CARTESIAN_POINT('',(0.,0.,-4.19926548461436));
#388=CARTESIAN_POINT('',(0.,0.,7.9));
#389=(
GEOMETRIC_REPRESENTATION_CONTEXT(3)
GLOBAL_UNCERTAINTY_ASSIGNED_CONTEXT((#390))
GLOBAL_UNIT_ASSIGNED_CONTEXT((#396,#392,#391))
REPRESENTATION_CONTEXT('C3D_N_02_040_0013','TOP_LEVEL_ASSEMBLY_PART')
);
#390=UNCERTAINTY_MEASURE_WITH_UNIT(LENGTH_MEASURE(2.E-005),#396,
'DISTANCE_ACCURACY_VALUE','Maximum Tolerance applied to model');
#391=(
NAMED_UNIT(*)
SI_UNIT($,.STERADIAN.)
SOLID_ANGLE_UNIT()
);
#392=(
CONVERSION_BASED_UNIT('DEGREE',#394)
NAMED_UNIT(#393)
PLANE_ANGLE_UNIT()
);
#393=DIMENSIONAL_EXPONENTS(0.,0.,0.,0.,0.,0.,0.);
#394=PLANE_ANGLE_MEASURE_WITH_UNIT(PLANE_ANGLE_MEASURE(0.0174532925),#395);
#395=(
NAMED_UNIT(*)
PLANE_ANGLE_UNIT()
SI_UNIT($,.RADIAN.)
);
#396=(
LENGTH_UNIT()
NAMED_UNIT(*)
SI_UNIT(.MILLI.,.METRE.)
);
ENDSEC;
END-ISO-10303-21;
