ISO-10303-21;
HEADER;
/* Generated by software containing ST-Developer
 * from STEP Tools, Inc. (www.steptools.com) 
 */
/* OPTION: using custom schema-name function */

FILE_DESCRIPTION(
/* description */ (''),
/* implementation_level */ '2;1');

FILE_NAME(
/* name */ 'n 01 040 001x 1nxc001-01.stp',
/* time_stamp */ '2021-09-30T10:22:53+02:00',
/* author */ (''),
/* organization */ (''),
/* preprocessor_version */ 'ST-DEVELOPER v16.7',
/* originating_system */ 'SIEMENS PLM Software NX 12.0',
/* authorisation */ '');

FILE_SCHEMA (('AUTOMOTIVE_DESIGN { 1 0 10303 214 3 1 1 1 }'));
ENDSEC;

DATA;
#10=SHAPE_REPRESENTATION_RELATIONSHIP('None',
'relationship between n 01 040 001x 1nxc001-01-None and n 01 040 001x 
1nxc001-01-None',#36,#11);
#11=ADVANCED_BREP_SHAPE_REPRESENTATION('n 01 040 001x 1nxc001-01-None',
(#46),#267);
#12=CONTEXT_DEPENDENT_SHAPE_REPRESENTATION(#14,#20);
#13=NEXT_ASSEMBLY_USAGE_OCCURRENCE('1001',' ',
'N 01 040 001X 1NXM001-05',#22,#21,$);
#14=(
REPRESENTATION_RELATIONSHIP(' ',' ',#35,#36)
REPRESENTATION_RELATIONSHIP_WITH_TRANSFORMATION(#15)
SHAPE_REPRESENTATION_RELATIONSHIP()
);
#15=ITEM_DEFINED_TRANSFORMATION(' ',' ',#163,#185);
#16=SHAPE_DEFINITION_REPRESENTATION(#18,#35);
#17=SHAPE_DEFINITION_REPRESENTATION(#19,#36);
#18=PRODUCT_DEFINITION_SHAPE('','',#21);
#19=PRODUCT_DEFINITION_SHAPE('','',#22);
#20=PRODUCT_DEFINITION_SHAPE(' ','NAUO PRDDFN',#13);
#21=PRODUCT_DEFINITION(' ','',#25,#23);
#22=PRODUCT_DEFINITION(' ','',#26,#24);
#23=PRODUCT_DEFINITION_CONTEXT('part definition',#34,'design');
#24=PRODUCT_DEFINITION_CONTEXT('part definition',#34,'design');
#25=PRODUCT_DEFINITION_FORMATION_WITH_SPECIFIED_SOURCE(' ',' ',#29,
 .NOT_KNOWN.);
#26=PRODUCT_DEFINITION_FORMATION_WITH_SPECIFIED_SOURCE(' ',' ',#30,
 .NOT_KNOWN.);
#27=PRODUCT_RELATED_PRODUCT_CATEGORY('part','',(#29));
#28=PRODUCT_RELATED_PRODUCT_CATEGORY('part','',(#30));
#29=PRODUCT('n 01 040 001x 1nxm001-05_27462ID',
'n 01 040 001x 1nxm001-05_27462ID',' ',(#31));
#30=PRODUCT('n 01 040 001x 1nxc001-01','n 01 040 001x 1nxc001-01',' ',(#32));
#31=PRODUCT_CONTEXT(' ',#34,'mechanical');
#32=PRODUCT_CONTEXT(' ',#34,'mechanical');
#33=APPLICATION_PROTOCOL_DEFINITION('international standard',
'automotive_design',2010,#34);
#34=APPLICATION_CONTEXT(
'core data for automotive mechanical design processes');
#35=SHAPE_REPRESENTATION(
'n 01 040 001x 1nxm001-05_27462ID-SOLID_PROM_0001',(#163),#268);
#36=SHAPE_REPRESENTATION('n 01 040 001x 1nxc001-01-None',(#163,#185),#267);
#37=PRESENTATION_LAYER_ASSIGNMENT('1','Layer 1',(#46));
#38=STYLED_ITEM('',(#39),#46);
#39=PRESENTATION_STYLE_ASSIGNMENT((#40));
#40=SURFACE_STYLE_USAGE(.BOTH.,#41);
#41=SURFACE_SIDE_STYLE('',(#42));
#42=SURFACE_STYLE_FILL_AREA(#43);
#43=FILL_AREA_STYLE('',(#44));
#44=FILL_AREA_STYLE_COLOUR('',#45);
#45=COLOUR_RGB('Medium Steel',0.596063172350652,0.666666666666667,0.686259250782025);
#46=MANIFOLD_SOLID_BREP('',#47);
#47=CLOSED_SHELL('',(#58,#59,#60,#61,#62,#63,#64,#65,#66,#67,#68));
#48=VERTEX_LOOP('',#142);
#49=CONICAL_SURFACE('',#176,2.,59.9999999999999);
#50=CONICAL_SURFACE('',#183,7.68776048691669E-16,59.9999999999999);
#51=SPHERICAL_SURFACE('',#172,2.);
#52=FACE_OUTER_BOUND('',#98,.T.);
#53=CYLINDRICAL_SURFACE('',#168,3.);
#54=CYLINDRICAL_SURFACE('',#174,2.);
#55=CYLINDRICAL_SURFACE('',#178,3.);
#56=CYLINDRICAL_SURFACE('',#181,2.05);
#57=CYLINDRICAL_SURFACE('',#184,1.5);
#58=ADVANCED_FACE('',(#72,#73),#69,.T.);
#59=ADVANCED_FACE('',(#74,#75),#53,.T.);
#60=ADVANCED_FACE('',(#76,#77),#70,.F.);
#61=ADVANCED_FACE('',(#52),#51,.T.);
#62=ADVANCED_FACE('',(#78,#79),#54,.T.);
#63=ADVANCED_FACE('',(#80,#81),#49,.T.);
#64=ADVANCED_FACE('',(#82,#83),#55,.T.);
#65=ADVANCED_FACE('',(#84,#85),#71,.T.);
#66=ADVANCED_FACE('',(#86,#87),#56,.T.);
#67=ADVANCED_FACE('',(#88,#89),#50,.F.);
#68=ADVANCED_FACE('',(#90,#91),#57,.F.);
#69=PLANE('',#166);
#70=PLANE('',#170);
#71=PLANE('',#180);
#72=FACE_BOUND('',#92,.T.);
#73=FACE_BOUND('',#93,.T.);
#74=FACE_BOUND('',#94,.T.);
#75=FACE_BOUND('',#95,.T.);
#76=FACE_BOUND('',#96,.T.);
#77=FACE_BOUND('',#97,.T.);
#78=FACE_BOUND('',#99,.T.);
#79=FACE_BOUND('',#100,.T.);
#80=FACE_BOUND('',#101,.T.);
#81=FACE_BOUND('',#102,.T.);
#82=FACE_BOUND('',#103,.T.);
#83=FACE_BOUND('',#104,.T.);
#84=FACE_BOUND('',#105,.T.);
#85=FACE_BOUND('',#106,.T.);
#86=FACE_BOUND('',#107,.T.);
#87=FACE_BOUND('',#108,.T.);
#88=FACE_BOUND('',#109,.T.);
#89=FACE_BOUND('',#48,.T.);
#90=FACE_BOUND('',#110,.T.);
#91=FACE_BOUND('',#111,.T.);
#92=EDGE_LOOP('',(#112));
#93=EDGE_LOOP('',(#113));
#94=EDGE_LOOP('',(#114));
#95=EDGE_LOOP('',(#115));
#96=EDGE_LOOP('',(#116));
#97=EDGE_LOOP('',(#117));
#98=EDGE_LOOP('',(#118));
#99=EDGE_LOOP('',(#119));
#100=EDGE_LOOP('',(#120));
#101=EDGE_LOOP('',(#121));
#102=EDGE_LOOP('',(#122));
#103=EDGE_LOOP('',(#123));
#104=EDGE_LOOP('',(#124));
#105=EDGE_LOOP('',(#125));
#106=EDGE_LOOP('',(#126));
#107=EDGE_LOOP('',(#127));
#108=EDGE_LOOP('',(#128));
#109=EDGE_LOOP('',(#129));
#110=EDGE_LOOP('',(#130));
#111=EDGE_LOOP('',(#131));
#112=ORIENTED_EDGE('',*,*,#143,.F.);
#113=ORIENTED_EDGE('',*,*,#144,.T.);
#114=ORIENTED_EDGE('',*,*,#144,.F.);
#115=ORIENTED_EDGE('',*,*,#145,.T.);
#116=ORIENTED_EDGE('',*,*,#145,.F.);
#117=ORIENTED_EDGE('',*,*,#146,.T.);
#118=ORIENTED_EDGE('',*,*,#147,.F.);
#119=ORIENTED_EDGE('',*,*,#147,.T.);
#120=ORIENTED_EDGE('',*,*,#148,.T.);
#121=ORIENTED_EDGE('',*,*,#149,.T.);
#122=ORIENTED_EDGE('',*,*,#148,.F.);
#123=ORIENTED_EDGE('',*,*,#149,.F.);
#124=ORIENTED_EDGE('',*,*,#150,.F.);
#125=ORIENTED_EDGE('',*,*,#150,.T.);
#126=ORIENTED_EDGE('',*,*,#151,.F.);
#127=ORIENTED_EDGE('',*,*,#151,.T.);
#128=ORIENTED_EDGE('',*,*,#146,.F.);
#129=ORIENTED_EDGE('',*,*,#152,.T.);
#130=ORIENTED_EDGE('',*,*,#152,.F.);
#131=ORIENTED_EDGE('',*,*,#143,.T.);
#132=VERTEX_POINT('',#234);
#133=VERTEX_POINT('',#236);
#134=VERTEX_POINT('',#239);
#135=VERTEX_POINT('',#242);
#136=VERTEX_POINT('',#245);
#137=VERTEX_POINT('',#248);
#138=VERTEX_POINT('',#251);
#139=VERTEX_POINT('',#254);
#140=VERTEX_POINT('',#257);
#141=VERTEX_POINT('',#261);
#142=VERTEX_POINT('',#262);
#143=EDGE_CURVE('',#132,#132,#153,.T.);
#144=EDGE_CURVE('',#133,#133,#154,.T.);
#145=EDGE_CURVE('',#134,#134,#155,.T.);
#146=EDGE_CURVE('',#135,#135,#156,.T.);
#147=EDGE_CURVE('',#136,#136,#157,.T.);
#148=EDGE_CURVE('',#137,#137,#158,.T.);
#149=EDGE_CURVE('',#138,#138,#159,.T.);
#150=EDGE_CURVE('',#139,#139,#160,.T.);
#151=EDGE_CURVE('',#140,#140,#161,.T.);
#152=EDGE_CURVE('',#141,#141,#162,.T.);
#153=CIRCLE('',#164,1.5);
#154=CIRCLE('',#165,3.);
#155=CIRCLE('',#167,3.);
#156=CIRCLE('',#169,2.05);
#157=CIRCLE('',#171,2.);
#158=CIRCLE('',#173,2.);
#159=CIRCLE('',#175,3.);
#160=CIRCLE('',#177,3.);
#161=CIRCLE('',#179,2.05);
#162=CIRCLE('',#182,1.5);
#163=AXIS2_PLACEMENT_3D('',#232,#186,#187);
#164=AXIS2_PLACEMENT_3D('',#233,#188,#189);
#165=AXIS2_PLACEMENT_3D('',#235,#190,#191);
#166=AXIS2_PLACEMENT_3D('',#237,#192,#193);
#167=AXIS2_PLACEMENT_3D('',#238,#194,#195);
#168=AXIS2_PLACEMENT_3D('',#240,#196,#197);
#169=AXIS2_PLACEMENT_3D('',#241,#198,#199);
#170=AXIS2_PLACEMENT_3D('',#243,#200,#201);
#171=AXIS2_PLACEMENT_3D('',#244,#202,#203);
#172=AXIS2_PLACEMENT_3D('',#246,#204,#205);
#173=AXIS2_PLACEMENT_3D('',#247,#206,#207);
#174=AXIS2_PLACEMENT_3D('',#249,#208,#209);
#175=AXIS2_PLACEMENT_3D('',#250,#210,#211);
#176=AXIS2_PLACEMENT_3D('',#252,#212,#213);
#177=AXIS2_PLACEMENT_3D('',#253,#214,#215);
#178=AXIS2_PLACEMENT_3D('',#255,#216,#217);
#179=AXIS2_PLACEMENT_3D('',#256,#218,#219);
#180=AXIS2_PLACEMENT_3D('',#258,#220,#221);
#181=AXIS2_PLACEMENT_3D('',#259,#222,#223);
#182=AXIS2_PLACEMENT_3D('',#260,#224,#225);
#183=AXIS2_PLACEMENT_3D('',#263,#226,#227);
#184=AXIS2_PLACEMENT_3D('',#264,#228,#229);
#185=AXIS2_PLACEMENT_3D('',#265,#230,#231);
#186=DIRECTION('',(0.,0.,1.));
#187=DIRECTION('',(1.,0.,0.));
#188=DIRECTION('',(0.,0.,1.));
#189=DIRECTION('',(1.,0.,0.));
#190=DIRECTION('',(0.,0.,1.));
#191=DIRECTION('',(1.,0.,0.));
#192=DIRECTION('',(0.,0.,1.));
#193=DIRECTION('',(1.,0.,0.));
#194=DIRECTION('',(0.,0.,1.));
#195=DIRECTION('',(1.,0.,0.));
#196=DIRECTION('',(0.,0.,-1.));
#197=DIRECTION('',(-1.,0.,0.));
#198=DIRECTION('',(0.,0.,1.));
#199=DIRECTION('',(-1.,0.,0.));
#200=DIRECTION('',(0.,0.,1.));
#201=DIRECTION('',(1.,0.,0.));
#202=DIRECTION('',(0.,0.,1.));
#203=DIRECTION('',(-1.,0.,0.));
#204=DIRECTION('',(-6.12323399573677E-17,0.,-1.));
#205=DIRECTION('',(-1.,0.,0.));
#206=DIRECTION('',(0.,0.,-1.));
#207=DIRECTION('',(-1.,0.,0.));
#208=DIRECTION('',(0.,0.,-1.));
#209=DIRECTION('',(-1.,0.,0.));
#210=DIRECTION('',(0.,0.,-1.));
#211=DIRECTION('',(-1.,0.,0.));
#212=DIRECTION('',(0.,0.,1.));
#213=DIRECTION('',(1.,0.,2.60100858513084E-17));
#214=DIRECTION('',(0.,0.,1.));
#215=DIRECTION('',(1.,0.,0.));
#216=DIRECTION('',(0.,0.,-1.));
#217=DIRECTION('',(-1.,0.,0.));
#218=DIRECTION('',(0.,0.,1.));
#219=DIRECTION('',(1.,0.,0.));
#220=DIRECTION('',(0.,0.,1.));
#221=DIRECTION('',(1.,0.,0.));
#222=DIRECTION('',(0.,0.,-1.));
#223=DIRECTION('',(-1.,0.,0.));
#224=DIRECTION('',(0.,0.,1.));
#225=DIRECTION('',(1.,0.,0.));
#226=DIRECTION('',(0.,0.,1.));
#227=DIRECTION('',(1.,0.,8.01234452659821E-18));
#228=DIRECTION('',(0.,0.,-1.));
#229=DIRECTION('',(-1.,0.,0.));
#230=DIRECTION('',(0.,0.,1.));
#231=DIRECTION('',(1.,0.,0.));
#232=CARTESIAN_POINT('',(0.,0.,0.));
#233=CARTESIAN_POINT('',(0.,0.,7.9));
#234=CARTESIAN_POINT('',(1.5,0.,7.9));
#235=CARTESIAN_POINT('',(0.,0.,7.9));
#236=CARTESIAN_POINT('',(3.,0.,7.9));
#237=CARTESIAN_POINT('',(0.,0.,7.9));
#238=CARTESIAN_POINT('',(0.,0.,5.9));
#239=CARTESIAN_POINT('',(3.,0.,5.9));
#240=CARTESIAN_POINT('',(0.,0.,7.9));
#241=CARTESIAN_POINT('',(0.,0.,5.9));
#242=CARTESIAN_POINT('',(-2.05,0.,5.9));
#243=CARTESIAN_POINT('',(0.,0.,5.9));
#244=CARTESIAN_POINT('',(0.,0.,-19.1));
#245=CARTESIAN_POINT('',(-2.,0.,-19.1));
#246=CARTESIAN_POINT('',(0.,0.,-19.1));
#247=CARTESIAN_POINT('',(0.,0.,-3.4));
#248=CARTESIAN_POINT('',(-2.,0.,-3.4));
#249=CARTESIAN_POINT('',(0.,0.,0.));
#250=CARTESIAN_POINT('',(0.,0.,-2.82264973081038));
#251=CARTESIAN_POINT('',(-3.,0.,-2.82264973081038));
#252=CARTESIAN_POINT('',(0.,0.,-3.4));
#253=CARTESIAN_POINT('',(0.,0.,0.900000000000001));
#254=CARTESIAN_POINT('',(3.,0.,0.900000000000001));
#255=CARTESIAN_POINT('',(0.,0.,7.9));
#256=CARTESIAN_POINT('',(0.,0.,0.900000000000001));
#257=CARTESIAN_POINT('',(2.05,0.,0.900000000000001));
#258=CARTESIAN_POINT('',(0.,0.,0.900000000000001));
#259=CARTESIAN_POINT('',(0.,0.,7.9));
#260=CARTESIAN_POINT('',(0.,0.,-2.04226497308104));
#261=CARTESIAN_POINT('',(1.5,0.,-2.04226497308104));
#262=CARTESIAN_POINT('',(7.68776048691669E-16,0.,-2.90829037686548));
#263=CARTESIAN_POINT('',(0.,0.,-2.90829037686548));
#264=CARTESIAN_POINT('',(0.,0.,7.9));
#265=CARTESIAN_POINT('',(0.,0.,0.));
#266=MECHANICAL_DESIGN_GEOMETRIC_PRESENTATION_REPRESENTATION('',(#38),#267);
#267=(
GEOMETRIC_REPRESENTATION_CONTEXT(3)
GLOBAL_UNCERTAINTY_ASSIGNED_CONTEXT((#269))
GLOBAL_UNIT_ASSIGNED_CONTEXT((#276,#272,#271))
REPRESENTATION_CONTEXT('n 01 040 001x 1nxc001-01',
'TOP_LEVEL_ASSEMBLY_PART')
);
#268=(
GEOMETRIC_REPRESENTATION_CONTEXT(3)
GLOBAL_UNCERTAINTY_ASSIGNED_CONTEXT((#270))
GLOBAL_UNIT_ASSIGNED_CONTEXT((#276,#272,#271))
REPRESENTATION_CONTEXT('n 01 040 001x 1nxm001-05_27462ID',
'COMPONENT_PART')
);
#269=UNCERTAINTY_MEASURE_WITH_UNIT(LENGTH_MEASURE(2.E-5),#276,
'DISTANCE_ACCURACY_VALUE','Maximum Tolerance applied to model');
#270=UNCERTAINTY_MEASURE_WITH_UNIT(LENGTH_MEASURE(0.0508),#276,
'DISTANCE_ACCURACY_VALUE','Maximum Tolerance applied to model');
#271=(
NAMED_UNIT(*)
SI_UNIT($,.STERADIAN.)
SOLID_ANGLE_UNIT()
);
#272=(
CONVERSION_BASED_UNIT('DEGREE',#274)
NAMED_UNIT(#273)
PLANE_ANGLE_UNIT()
);
#273=DIMENSIONAL_EXPONENTS(0.,0.,0.,0.,0.,0.,0.);
#274=PLANE_ANGLE_MEASURE_WITH_UNIT(PLANE_ANGLE_MEASURE(0.0174532925),#275);
#275=(
NAMED_UNIT(*)
PLANE_ANGLE_UNIT()
SI_UNIT($,.RADIAN.)
);
#276=(
LENGTH_UNIT()
NAMED_UNIT(*)
SI_UNIT(.MILLI.,.METRE.)
);
ENDSEC;
END-ISO-10303-21;
