ISO-10303-21;
HEADER;
/* Generated by software containing ST-Developer
 * from STEP Tools, Inc. (www.steptools.com) 
 */
/* OPTION: using custom schema-name function */

FILE_DESCRIPTION(
/* description */ (''),
/* implementation_level */ '2;1');

FILE_NAME(
/* name */ 'C3D_N_01_040_0010_1.stp',
/* time_stamp */ '2016-03-01T15:40:29+01:00',
/* author */ (''),
/* organization */ (''),
/* preprocessor_version */ 'ST-DEVELOPER v15',
/* originating_system */ 'SIEMENS PLM Software NX 9.0',
/* authorisation */ '');

FILE_SCHEMA (('CONFIG_CONTROL_DESIGN'));
ENDSEC;

DATA;
#10=SHAPE_REPRESENTATION_RELATIONSHIP('None',
'relationship between n 01 040 0010nxm001-04-None and n 01 040 0010nxm
001-04-None',#92,#11);
#11=ADVANCED_BREP_SHAPE_REPRESENTATION('n 01 040 0010nxm001-04-None',(#93),
#405);
#12=CC_DESIGN_APPROVAL(#24,(#82));
#13=CC_DESIGN_APPROVAL(#25,(#84));
#14=CC_DESIGN_APPROVAL(#26,(#31));
#15=APPROVAL_PERSON_ORGANIZATION(#69,#24,#18);
#16=APPROVAL_PERSON_ORGANIZATION(#70,#25,#19);
#17=APPROVAL_PERSON_ORGANIZATION(#71,#26,#20);
#18=APPROVAL_ROLE('approver');
#19=APPROVAL_ROLE('approver');
#20=APPROVAL_ROLE('approver');
#21=APPROVAL_DATE_TIME(#39,#24);
#22=APPROVAL_DATE_TIME(#40,#25);
#23=APPROVAL_DATE_TIME(#41,#26);
#24=APPROVAL(#27,' ');
#25=APPROVAL(#28,' ');
#26=APPROVAL(#29,' ');
#27=APPROVAL_STATUS('not_yet_approved');
#28=APPROVAL_STATUS('not_yet_approved');
#29=APPROVAL_STATUS('not_yet_approved');
#30=CC_DESIGN_SECURITY_CLASSIFICATION(#31,(#84));
#31=SECURITY_CLASSIFICATION(' ',' ',#32);
#32=SECURITY_CLASSIFICATION_LEVEL('confidential');
#33=CC_DESIGN_DATE_AND_TIME_ASSIGNMENT(#37,#35,(#82));
#34=CC_DESIGN_DATE_AND_TIME_ASSIGNMENT(#38,#36,(#31));
#35=DATE_TIME_ROLE('creation_date');
#36=DATE_TIME_ROLE('classification_date');
#37=DATE_AND_TIME(#52,#42);
#38=DATE_AND_TIME(#53,#43);
#39=DATE_AND_TIME(#54,#44);
#40=DATE_AND_TIME(#55,#45);
#41=DATE_AND_TIME(#56,#46);
#42=LOCAL_TIME(0,0,0.,#47);
#43=LOCAL_TIME(0,0,0.,#48);
#44=LOCAL_TIME(0,0,0.,#49);
#45=LOCAL_TIME(0,0,0.,#50);
#46=LOCAL_TIME(0,0,0.,#51);
#47=COORDINATED_UNIVERSAL_TIME_OFFSET(0,0,.BEHIND.);
#48=COORDINATED_UNIVERSAL_TIME_OFFSET(0,0,.BEHIND.);
#49=COORDINATED_UNIVERSAL_TIME_OFFSET(0,0,.BEHIND.);
#50=COORDINATED_UNIVERSAL_TIME_OFFSET(0,0,.BEHIND.);
#51=COORDINATED_UNIVERSAL_TIME_OFFSET(0,0,.BEHIND.);
#52=CALENDAR_DATE(0,1,1);
#53=CALENDAR_DATE(0,1,1);
#54=CALENDAR_DATE(0,1,1);
#55=CALENDAR_DATE(0,1,1);
#56=CALENDAR_DATE(0,1,1);
#57=CC_DESIGN_PERSON_AND_ORGANIZATION_ASSIGNMENT(#65,#61,(#82,#84));
#58=CC_DESIGN_PERSON_AND_ORGANIZATION_ASSIGNMENT(#66,#62,(#86));
#59=CC_DESIGN_PERSON_AND_ORGANIZATION_ASSIGNMENT(#67,#63,(#84));
#60=CC_DESIGN_PERSON_AND_ORGANIZATION_ASSIGNMENT(#68,#64,(#31));
#61=PERSON_AND_ORGANIZATION_ROLE('creator');
#62=PERSON_AND_ORGANIZATION_ROLE('design_owner');
#63=PERSON_AND_ORGANIZATION_ROLE('design_supplier');
#64=PERSON_AND_ORGANIZATION_ROLE('classification_officer');
#65=PERSON_AND_ORGANIZATION(#79,#72);
#66=PERSON_AND_ORGANIZATION(#79,#73);
#67=PERSON_AND_ORGANIZATION(#79,#74);
#68=PERSON_AND_ORGANIZATION(#79,#75);
#69=PERSON_AND_ORGANIZATION(#79,#76);
#70=PERSON_AND_ORGANIZATION(#79,#77);
#71=PERSON_AND_ORGANIZATION(#79,#78);
#72=ORGANIZATION(' ',' ',' ');
#73=ORGANIZATION(' ',' ',' ');
#74=ORGANIZATION(' ',' ',' ');
#75=ORGANIZATION(' ',' ',' ');
#76=ORGANIZATION(' ',' ',' ');
#77=ORGANIZATION(' ',' ',' ');
#78=ORGANIZATION(' ',' ',' ');
#79=PERSON(' ',' ',' ',(' '),$,$);
#80=SHAPE_DEFINITION_REPRESENTATION(#81,#92);
#81=PRODUCT_DEFINITION_SHAPE('','',#82);
#82=PRODUCT_DEFINITION(' ','',#84,#83);
#83=DESIGN_CONTEXT('',#91,'design');
#84=PRODUCT_DEFINITION_FORMATION_WITH_SPECIFIED_SOURCE(' ',' ',#86,
 .NOT_KNOWN.);
#85=PRODUCT_RELATED_PRODUCT_CATEGORY('detail','',(#86));
#86=PRODUCT('n 01 040 0010nxm001-04','n 01 040 0010nxm001-04',' ',(#89));
#87=PRODUCT_CATEGORY('part',' ');
#88=PRODUCT_CATEGORY(' ','');
#89=MECHANICAL_CONTEXT(' ',#91,'mechanical');
#90=APPLICATION_PROTOCOL_DEFINITION('international standard',
'config_control_design',2010,#91);
#91=APPLICATION_CONTEXT(
'configuration controlled 3D designs of mechanical parts and assemblie
s');
#92=SHAPE_REPRESENTATION('n 01 040 0010nxm001-04-None',(#262),#405);
#93=MANIFOLD_SOLID_BREP('',#94);
#94=CLOSED_SHELL('',(#107,#108,#109,#110,#111,#112,#113,#114,#115,#116,
#117,#118,#119,#120,#121,#122));
#95=CONICAL_SURFACE('',#275,2.,59.9999999999999);
#96=CONICAL_SURFACE('',#277,2.9,45.);
#97=CONICAL_SURFACE('',#278,3.,44.9999999999999);
#98=CONICAL_SURFACE('',#280,2.9,44.9999999999999);
#99=CONICAL_SURFACE('',#282,3.,44.9999999999996);
#100=CONICAL_SURFACE('',#288,3.,45.);
#101=CONICAL_SURFACE('',#292,1.55,45.);
#102=SPHERICAL_SURFACE('',#272,2.);
#103=PLANE('',#270);
#104=PLANE('',#286);
#105=FACE_OUTER_BOUND('',#161,.T.);
#106=FACE_OUTER_BOUND('',#178,.T.);
#107=ADVANCED_FACE('',(#129,#130),#123,.T.);
#108=ADVANCED_FACE('',(#131,#132),#124,.T.);
#109=ADVANCED_FACE('',(#105),#103,.T.);
#110=ADVANCED_FACE('',(#133,#134),#102,.T.);
#111=ADVANCED_FACE('',(#135,#136),#125,.T.);
#112=ADVANCED_FACE('',(#137,#138),#95,.T.);
#113=ADVANCED_FACE('',(#139,#140),#96,.T.);
#114=ADVANCED_FACE('',(#141,#142),#97,.T.);
#115=ADVANCED_FACE('',(#143,#144),#98,.T.);
#116=ADVANCED_FACE('',(#145,#146),#99,.T.);
#117=ADVANCED_FACE('',(#147,#148),#126,.T.);
#118=ADVANCED_FACE('',(#106),#104,.T.);
#119=ADVANCED_FACE('',(#149,#150),#100,.T.);
#120=ADVANCED_FACE('',(#151,#152),#127,.T.);
#121=ADVANCED_FACE('',(#153,#154),#101,.T.);
#122=ADVANCED_FACE('',(#155,#156),#128,.T.);
#123=CYLINDRICAL_SURFACE('',#265,3.);
#124=CYLINDRICAL_SURFACE('',#268,3.);
#125=CYLINDRICAL_SURFACE('',#274,2.);
#126=CYLINDRICAL_SURFACE('',#285,3.);
#127=CYLINDRICAL_SURFACE('',#290,1.55);
#128=CYLINDRICAL_SURFACE('',#293,3.);
#129=FACE_BOUND('',#157,.T.);
#130=FACE_BOUND('',#158,.T.);
#131=FACE_BOUND('',#159,.T.);
#132=FACE_BOUND('',#160,.T.);
#133=FACE_BOUND('',#162,.T.);
#134=FACE_BOUND('',#163,.T.);
#135=FACE_BOUND('',#164,.T.);
#136=FACE_BOUND('',#165,.T.);
#137=FACE_BOUND('',#166,.T.);
#138=FACE_BOUND('',#167,.T.);
#139=FACE_BOUND('',#168,.T.);
#140=FACE_BOUND('',#169,.T.);
#141=FACE_BOUND('',#170,.T.);
#142=FACE_BOUND('',#171,.T.);
#143=FACE_BOUND('',#172,.T.);
#144=FACE_BOUND('',#173,.T.);
#145=FACE_BOUND('',#174,.T.);
#146=FACE_BOUND('',#175,.T.);
#147=FACE_BOUND('',#176,.T.);
#148=FACE_BOUND('',#177,.T.);
#149=FACE_BOUND('',#179,.T.);
#150=FACE_BOUND('',#180,.T.);
#151=FACE_BOUND('',#181,.T.);
#152=FACE_BOUND('',#182,.T.);
#153=FACE_BOUND('',#183,.T.);
#154=FACE_BOUND('',#184,.T.);
#155=FACE_BOUND('',#185,.T.);
#156=FACE_BOUND('',#186,.T.);
#157=EDGE_LOOP('',(#187));
#158=EDGE_LOOP('',(#188));
#159=EDGE_LOOP('',(#189));
#160=EDGE_LOOP('',(#190));
#161=EDGE_LOOP('',(#191));
#162=EDGE_LOOP('',(#192));
#163=EDGE_LOOP('',(#193));
#164=EDGE_LOOP('',(#194));
#165=EDGE_LOOP('',(#195));
#166=EDGE_LOOP('',(#196));
#167=EDGE_LOOP('',(#197));
#168=EDGE_LOOP('',(#198));
#169=EDGE_LOOP('',(#199));
#170=EDGE_LOOP('',(#200));
#171=EDGE_LOOP('',(#201));
#172=EDGE_LOOP('',(#202));
#173=EDGE_LOOP('',(#203));
#174=EDGE_LOOP('',(#204));
#175=EDGE_LOOP('',(#205));
#176=EDGE_LOOP('',(#206));
#177=EDGE_LOOP('',(#207));
#178=EDGE_LOOP('',(#208));
#179=EDGE_LOOP('',(#209));
#180=EDGE_LOOP('',(#210));
#181=EDGE_LOOP('',(#211));
#182=EDGE_LOOP('',(#212));
#183=EDGE_LOOP('',(#213));
#184=EDGE_LOOP('',(#214));
#185=EDGE_LOOP('',(#215));
#186=EDGE_LOOP('',(#216));
#187=ORIENTED_EDGE('',*,*,#232,.T.);
#188=ORIENTED_EDGE('',*,*,#233,.F.);
#189=ORIENTED_EDGE('',*,*,#234,.T.);
#190=ORIENTED_EDGE('',*,*,#235,.F.);
#191=ORIENTED_EDGE('',*,*,#236,.T.);
#192=ORIENTED_EDGE('',*,*,#237,.T.);
#193=ORIENTED_EDGE('',*,*,#236,.F.);
#194=ORIENTED_EDGE('',*,*,#238,.T.);
#195=ORIENTED_EDGE('',*,*,#237,.F.);
#196=ORIENTED_EDGE('',*,*,#235,.T.);
#197=ORIENTED_EDGE('',*,*,#238,.F.);
#198=ORIENTED_EDGE('',*,*,#234,.F.);
#199=ORIENTED_EDGE('',*,*,#239,.T.);
#200=ORIENTED_EDGE('',*,*,#239,.F.);
#201=ORIENTED_EDGE('',*,*,#233,.T.);
#202=ORIENTED_EDGE('',*,*,#232,.F.);
#203=ORIENTED_EDGE('',*,*,#240,.T.);
#204=ORIENTED_EDGE('',*,*,#240,.F.);
#205=ORIENTED_EDGE('',*,*,#241,.T.);
#206=ORIENTED_EDGE('',*,*,#242,.F.);
#207=ORIENTED_EDGE('',*,*,#243,.F.);
#208=ORIENTED_EDGE('',*,*,#243,.T.);
#209=ORIENTED_EDGE('',*,*,#244,.F.);
#210=ORIENTED_EDGE('',*,*,#242,.T.);
#211=ORIENTED_EDGE('',*,*,#245,.F.);
#212=ORIENTED_EDGE('',*,*,#244,.T.);
#213=ORIENTED_EDGE('',*,*,#245,.T.);
#214=ORIENTED_EDGE('',*,*,#246,.F.);
#215=ORIENTED_EDGE('',*,*,#241,.F.);
#216=ORIENTED_EDGE('',*,*,#246,.T.);
#217=VERTEX_POINT('',#360);
#218=VERTEX_POINT('',#362);
#219=VERTEX_POINT('',#365);
#220=VERTEX_POINT('',#367);
#221=VERTEX_POINT('',#370);
#222=VERTEX_POINT('',#373);
#223=VERTEX_POINT('',#376);
#224=VERTEX_POINT('',#380);
#225=VERTEX_POINT('',#384);
#226=VERTEX_POINT('',#387);
#227=VERTEX_POINT('',#390);
#228=VERTEX_POINT('',#392);
#229=VERTEX_POINT('',#396);
#230=VERTEX_POINT('',#399);
#231=VERTEX_POINT('',#402);
#232=EDGE_CURVE('',#217,#217,#247,.T.);
#233=EDGE_CURVE('',#218,#218,#248,.T.);
#234=EDGE_CURVE('',#219,#219,#249,.T.);
#235=EDGE_CURVE('',#220,#220,#250,.T.);
#236=EDGE_CURVE('',#221,#221,#251,.T.);
#237=EDGE_CURVE('',#222,#222,#252,.T.);
#238=EDGE_CURVE('',#223,#223,#253,.T.);
#239=EDGE_CURVE('',#224,#224,#254,.T.);
#240=EDGE_CURVE('',#225,#225,#255,.T.);
#241=EDGE_CURVE('',#226,#226,#256,.T.);
#242=EDGE_CURVE('',#227,#227,#257,.T.);
#243=EDGE_CURVE('',#228,#228,#258,.T.);
#244=EDGE_CURVE('',#229,#229,#259,.T.);
#245=EDGE_CURVE('',#230,#230,#260,.T.);
#246=EDGE_CURVE('',#231,#231,#261,.T.);
#247=CIRCLE('',#263,3.);
#248=CIRCLE('',#264,3.);
#249=CIRCLE('',#266,3.);
#250=CIRCLE('',#267,3.);
#251=CIRCLE('',#269,1.);
#252=CIRCLE('',#271,2.);
#253=CIRCLE('',#273,2.);
#254=CIRCLE('',#276,2.9);
#255=CIRCLE('',#279,2.9);
#256=CIRCLE('',#281,3.);
#257=CIRCLE('',#283,3.);
#258=CIRCLE('',#284,3.);
#259=CIRCLE('',#287,1.55);
#260=CIRCLE('',#289,1.55);
#261=CIRCLE('',#291,3.);
#262=AXIS2_PLACEMENT_3D('',#358,#294,#295);
#263=AXIS2_PLACEMENT_3D('',#359,#296,#297);
#264=AXIS2_PLACEMENT_3D('',#361,#298,#299);
#265=AXIS2_PLACEMENT_3D('',#363,#300,#301);
#266=AXIS2_PLACEMENT_3D('',#364,#302,#303);
#267=AXIS2_PLACEMENT_3D('',#366,#304,#305);
#268=AXIS2_PLACEMENT_3D('',#368,#306,#307);
#269=AXIS2_PLACEMENT_3D('',#369,#308,#309);
#270=AXIS2_PLACEMENT_3D('',#371,#310,#311);
#271=AXIS2_PLACEMENT_3D('',#372,#312,#313);
#272=AXIS2_PLACEMENT_3D('',#374,#314,#315);
#273=AXIS2_PLACEMENT_3D('',#375,#316,#317);
#274=AXIS2_PLACEMENT_3D('',#377,#318,#319);
#275=AXIS2_PLACEMENT_3D('',#378,#320,#321);
#276=AXIS2_PLACEMENT_3D('',#379,#322,#323);
#277=AXIS2_PLACEMENT_3D('',#381,#324,#325);
#278=AXIS2_PLACEMENT_3D('',#382,#326,#327);
#279=AXIS2_PLACEMENT_3D('',#383,#328,#329);
#280=AXIS2_PLACEMENT_3D('',#385,#330,#331);
#281=AXIS2_PLACEMENT_3D('',#386,#332,#333);
#282=AXIS2_PLACEMENT_3D('',#388,#334,#335);
#283=AXIS2_PLACEMENT_3D('',#389,#336,#337);
#284=AXIS2_PLACEMENT_3D('',#391,#338,#339);
#285=AXIS2_PLACEMENT_3D('',#393,#340,#341);
#286=AXIS2_PLACEMENT_3D('',#394,#342,#343);
#287=AXIS2_PLACEMENT_3D('',#395,#344,#345);
#288=AXIS2_PLACEMENT_3D('',#397,#346,#347);
#289=AXIS2_PLACEMENT_3D('',#398,#348,#349);
#290=AXIS2_PLACEMENT_3D('',#400,#350,#351);
#291=AXIS2_PLACEMENT_3D('',#401,#352,#353);
#292=AXIS2_PLACEMENT_3D('',#403,#354,#355);
#293=AXIS2_PLACEMENT_3D('',#404,#356,#357);
#294=DIRECTION('',(0.,0.,1.));
#295=DIRECTION('',(1.,0.,0.));
#296=DIRECTION('',(0.,0.,-1.));
#297=DIRECTION('',(-1.,0.,0.));
#298=DIRECTION('',(0.,0.,-1.));
#299=DIRECTION('',(-1.,0.,0.));
#300=DIRECTION('',(0.,0.,-1.));
#301=DIRECTION('',(-1.,0.,0.));
#302=DIRECTION('',(0.,0.,-1.));
#303=DIRECTION('',(-1.,0.,0.));
#304=DIRECTION('',(0.,0.,-1.));
#305=DIRECTION('',(-1.,0.,0.));
#306=DIRECTION('',(0.,0.,-1.));
#307=DIRECTION('',(-1.,0.,0.));
#308=DIRECTION('',(0.,0.,-1.));
#309=DIRECTION('',(-1.,0.,0.));
#310=DIRECTION('',(0.,0.,-1.));
#311=DIRECTION('',(-1.,0.,0.));
#312=DIRECTION('',(0.,0.,-1.));
#313=DIRECTION('',(-1.,0.,0.));
#314=DIRECTION('',(0.,6.12323399573677E-017,-1.));
#315=DIRECTION('',(0.,1.,0.));
#316=DIRECTION('',(0.,0.,-1.));
#317=DIRECTION('',(-1.,0.,0.));
#318=DIRECTION('',(0.,0.,-1.));
#319=DIRECTION('',(-1.,0.,0.));
#320=DIRECTION('',(0.,0.,1.));
#321=DIRECTION('',(1.,0.,2.60100858513084E-017));
#322=DIRECTION('',(0.,0.,-1.));
#323=DIRECTION('',(-1.,0.,0.));
#324=DIRECTION('',(0.,0.,-1.));
#325=DIRECTION('',(-1.,0.,-5.2323646573236E-017));
#326=DIRECTION('',(0.,0.,1.));
#327=DIRECTION('',(1.,0.,4.66974415267936E-017));
#328=DIRECTION('',(0.,0.,-1.));
#329=DIRECTION('',(-1.,0.,0.));
#330=DIRECTION('',(0.,0.,-1.));
#331=DIRECTION('',(-1.,0.,-1.07241854133575E-016));
#332=DIRECTION('',(0.,0.,-1.));
#333=DIRECTION('',(-1.,0.,0.));
#334=DIRECTION('',(0.,0.,1.));
#335=DIRECTION('',(1.,0.,-9.08005807465439E-018));
#336=DIRECTION('',(0.,0.,-1.));
#337=DIRECTION('',(-1.,0.,0.));
#338=DIRECTION('',(0.,0.,1.));
#339=DIRECTION('',(1.,0.,0.));
#340=DIRECTION('',(0.,0.,-1.));
#341=DIRECTION('',(-1.,0.,0.));
#342=DIRECTION('',(0.,0.,1.));
#343=DIRECTION('',(1.,0.,0.));
#344=DIRECTION('',(0.,0.,-1.));
#345=DIRECTION('',(-1.,0.,0.));
#346=DIRECTION('',(0.,0.,1.));
#347=DIRECTION('',(1.,0.,-3.28611625558917E-017));
#348=DIRECTION('',(0.,0.,-1.));
#349=DIRECTION('',(-1.,0.,0.));
#350=DIRECTION('',(0.,0.,-1.));
#351=DIRECTION('',(-1.,0.,0.));
#352=DIRECTION('',(0.,0.,-1.));
#353=DIRECTION('',(-1.,0.,0.));
#354=DIRECTION('',(0.,0.,-1.));
#355=DIRECTION('',(-1.,0.,1.12582523027799E-017));
#356=DIRECTION('',(0.,0.,-1.));
#357=DIRECTION('',(-1.,0.,0.));
#358=CARTESIAN_POINT('',(0.,0.,0.));
#359=CARTESIAN_POINT('',(0.,0.,-2.15));
#360=CARTESIAN_POINT('',(-3.,0.,-2.15));
#361=CARTESIAN_POINT('',(0.,0.,-2.45));
#362=CARTESIAN_POINT('',(-3.,0.,-2.45));
#363=CARTESIAN_POINT('',(0.,0.,7.9));
#364=CARTESIAN_POINT('',(0.,0.,-2.65));
#365=CARTESIAN_POINT('',(-3.,0.,-2.65));
#366=CARTESIAN_POINT('',(0.,0.,-2.82264973081038));
#367=CARTESIAN_POINT('',(-3.,0.,-2.82264973081038));
#368=CARTESIAN_POINT('',(0.,0.,7.9));
#369=CARTESIAN_POINT('',(0.,0.,-21.1));
#370=CARTESIAN_POINT('',(-1.,0.,-21.1));
#371=CARTESIAN_POINT('',(0.,0.,-21.1));
#372=CARTESIAN_POINT('',(0.,0.,-19.3679491924311));
#373=CARTESIAN_POINT('',(-2.,0.,-19.3679491924311));
#374=CARTESIAN_POINT('',(0.,0.,-19.3679491924311));
#375=CARTESIAN_POINT('',(0.,0.,-3.4));
#376=CARTESIAN_POINT('',(-2.,0.,-3.4));
#377=CARTESIAN_POINT('',(0.,0.,0.));
#378=CARTESIAN_POINT('',(0.,0.,-3.4));
#379=CARTESIAN_POINT('',(0.,0.,-2.55));
#380=CARTESIAN_POINT('',(-2.9,0.,-2.55));
#381=CARTESIAN_POINT('',(0.,0.,-2.55));
#382=CARTESIAN_POINT('',(0.,0.,-2.45));
#383=CARTESIAN_POINT('',(0.,0.,-2.05));
#384=CARTESIAN_POINT('',(-2.9,0.,-2.05));
#385=CARTESIAN_POINT('',(0.,0.,-2.05));
#386=CARTESIAN_POINT('',(0.,0.,-1.95));
#387=CARTESIAN_POINT('',(-3.,0.,-1.95));
#388=CARTESIAN_POINT('',(0.,0.,-1.95));
#389=CARTESIAN_POINT('',(0.,0.,7.35));
#390=CARTESIAN_POINT('',(-3.,0.,7.35));
#391=CARTESIAN_POINT('',(0.,0.,7.9));
#392=CARTESIAN_POINT('',(3.,0.,7.9));
#393=CARTESIAN_POINT('',(0.,0.,7.9));
#394=CARTESIAN_POINT('',(0.,0.,7.9));
#395=CARTESIAN_POINT('',(0.,0.,5.9));
#396=CARTESIAN_POINT('',(-1.55,0.,5.9));
#397=CARTESIAN_POINT('',(0.,0.,7.35));
#398=CARTESIAN_POINT('',(0.,0.,0.900000000000001));
#399=CARTESIAN_POINT('',(-1.55,0.,0.900000000000001));
#400=CARTESIAN_POINT('',(0.,0.,7.9));
#401=CARTESIAN_POINT('',(0.,0.,-0.55));
#402=CARTESIAN_POINT('',(-3.,0.,-0.55));
#403=CARTESIAN_POINT('',(0.,0.,0.900000000000001));
#404=CARTESIAN_POINT('',(0.,0.,7.9));
#405=(
GEOMETRIC_REPRESENTATION_CONTEXT(3)
GLOBAL_UNCERTAINTY_ASSIGNED_CONTEXT((#406))
GLOBAL_UNIT_ASSIGNED_CONTEXT((#412,#408,#407))
REPRESENTATION_CONTEXT('C3D_N_01_040_0010_1','TOP_LEVEL_ASSEMBLY_PART')
);
#406=UNCERTAINTY_MEASURE_WITH_UNIT(LENGTH_MEASURE(2.E-005),#412,
'DISTANCE_ACCURACY_VALUE','Maximum Tolerance applied to model');
#407=(
NAMED_UNIT(*)
SI_UNIT($,.STERADIAN.)
SOLID_ANGLE_UNIT()
);
#408=(
CONVERSION_BASED_UNIT('DEGREE',#410)
NAMED_UNIT(#409)
PLANE_ANGLE_UNIT()
);
#409=DIMENSIONAL_EXPONENTS(0.,0.,0.,0.,0.,0.,0.);
#410=PLANE_ANGLE_MEASURE_WITH_UNIT(PLANE_ANGLE_MEASURE(0.0174532925),#411);
#411=(
NAMED_UNIT(*)
PLANE_ANGLE_UNIT()
SI_UNIT($,.RADIAN.)
);
#412=(
LENGTH_UNIT()
NAMED_UNIT(*)
SI_UNIT(.MILLI.,.METRE.)
);
ENDSEC;
END-ISO-10303-21;
