ISO-10303-21;
HEADER;
/* Generated by software containing ST-Developer
 * from STEP Tools, Inc. (www.steptools.com) 
 */
/* OPTION: using custom schema-name function */

FILE_DESCRIPTION(
/* description */ (''),
/* implementation_level */ '2;1');

FILE_NAME(
/* name */ 'C3D_N_01_040_0011_1.stp',
/* time_stamp */ '2016-03-01T15:41:05+01:00',
/* author */ (''),
/* organization */ (''),
/* preprocessor_version */ 'ST-DEVELOPER v15',
/* originating_system */ 'SIEMENS PLM Software NX 9.0',
/* authorisation */ '');

FILE_SCHEMA (('CONFIG_CONTROL_DESIGN'));
ENDSEC;

DATA;
#10=SHAPE_REPRESENTATION_RELATIONSHIP('None',
'relationship between n 01 040 0011nxm001-04-None and n 01 040 0011nxm
001-04-None',#92,#11);
#11=ADVANCED_BREP_SHAPE_REPRESENTATION('n 01 040 0011nxm001-04-None',(#93),
#465);
#12=CC_DESIGN_APPROVAL(#24,(#82));
#13=CC_DESIGN_APPROVAL(#25,(#84));
#14=CC_DESIGN_APPROVAL(#26,(#31));
#15=APPROVAL_PERSON_ORGANIZATION(#69,#24,#18);
#16=APPROVAL_PERSON_ORGANIZATION(#70,#25,#19);
#17=APPROVAL_PERSON_ORGANIZATION(#71,#26,#20);
#18=APPROVAL_ROLE('approver');
#19=APPROVAL_ROLE('approver');
#20=APPROVAL_ROLE('approver');
#21=APPROVAL_DATE_TIME(#39,#24);
#22=APPROVAL_DATE_TIME(#40,#25);
#23=APPROVAL_DATE_TIME(#41,#26);
#24=APPROVAL(#27,' ');
#25=APPROVAL(#28,' ');
#26=APPROVAL(#29,' ');
#27=APPROVAL_STATUS('not_yet_approved');
#28=APPROVAL_STATUS('not_yet_approved');
#29=APPROVAL_STATUS('not_yet_approved');
#30=CC_DESIGN_SECURITY_CLASSIFICATION(#31,(#84));
#31=SECURITY_CLASSIFICATION(' ',' ',#32);
#32=SECURITY_CLASSIFICATION_LEVEL('confidential');
#33=CC_DESIGN_DATE_AND_TIME_ASSIGNMENT(#37,#35,(#82));
#34=CC_DESIGN_DATE_AND_TIME_ASSIGNMENT(#38,#36,(#31));
#35=DATE_TIME_ROLE('creation_date');
#36=DATE_TIME_ROLE('classification_date');
#37=DATE_AND_TIME(#52,#42);
#38=DATE_AND_TIME(#53,#43);
#39=DATE_AND_TIME(#54,#44);
#40=DATE_AND_TIME(#55,#45);
#41=DATE_AND_TIME(#56,#46);
#42=LOCAL_TIME(0,0,0.,#47);
#43=LOCAL_TIME(0,0,0.,#48);
#44=LOCAL_TIME(0,0,0.,#49);
#45=LOCAL_TIME(0,0,0.,#50);
#46=LOCAL_TIME(0,0,0.,#51);
#47=COORDINATED_UNIVERSAL_TIME_OFFSET(0,0,.BEHIND.);
#48=COORDINATED_UNIVERSAL_TIME_OFFSET(0,0,.BEHIND.);
#49=COORDINATED_UNIVERSAL_TIME_OFFSET(0,0,.BEHIND.);
#50=COORDINATED_UNIVERSAL_TIME_OFFSET(0,0,.BEHIND.);
#51=COORDINATED_UNIVERSAL_TIME_OFFSET(0,0,.BEHIND.);
#52=CALENDAR_DATE(0,1,1);
#53=CALENDAR_DATE(0,1,1);
#54=CALENDAR_DATE(0,1,1);
#55=CALENDAR_DATE(0,1,1);
#56=CALENDAR_DATE(0,1,1);
#57=CC_DESIGN_PERSON_AND_ORGANIZATION_ASSIGNMENT(#65,#61,(#82,#84));
#58=CC_DESIGN_PERSON_AND_ORGANIZATION_ASSIGNMENT(#66,#62,(#86));
#59=CC_DESIGN_PERSON_AND_ORGANIZATION_ASSIGNMENT(#67,#63,(#84));
#60=CC_DESIGN_PERSON_AND_ORGANIZATION_ASSIGNMENT(#68,#64,(#31));
#61=PERSON_AND_ORGANIZATION_ROLE('creator');
#62=PERSON_AND_ORGANIZATION_ROLE('design_owner');
#63=PERSON_AND_ORGANIZATION_ROLE('design_supplier');
#64=PERSON_AND_ORGANIZATION_ROLE('classification_officer');
#65=PERSON_AND_ORGANIZATION(#79,#72);
#66=PERSON_AND_ORGANIZATION(#79,#73);
#67=PERSON_AND_ORGANIZATION(#79,#74);
#68=PERSON_AND_ORGANIZATION(#79,#75);
#69=PERSON_AND_ORGANIZATION(#79,#76);
#70=PERSON_AND_ORGANIZATION(#79,#77);
#71=PERSON_AND_ORGANIZATION(#79,#78);
#72=ORGANIZATION(' ',' ',' ');
#73=ORGANIZATION(' ',' ',' ');
#74=ORGANIZATION(' ',' ',' ');
#75=ORGANIZATION(' ',' ',' ');
#76=ORGANIZATION(' ',' ',' ');
#77=ORGANIZATION(' ',' ',' ');
#78=ORGANIZATION(' ',' ',' ');
#79=PERSON(' ',' ',' ',(' '),$,$);
#80=SHAPE_DEFINITION_REPRESENTATION(#81,#92);
#81=PRODUCT_DEFINITION_SHAPE('','',#82);
#82=PRODUCT_DEFINITION(' ','',#84,#83);
#83=DESIGN_CONTEXT('',#91,'design');
#84=PRODUCT_DEFINITION_FORMATION_WITH_SPECIFIED_SOURCE(' ',' ',#86,
 .NOT_KNOWN.);
#85=PRODUCT_RELATED_PRODUCT_CATEGORY('detail','',(#86));
#86=PRODUCT('n 01 040 0011nxm001-04','n 01 040 0011nxm001-04',' ',(#89));
#87=PRODUCT_CATEGORY('part',' ');
#88=PRODUCT_CATEGORY(' ','');
#89=MECHANICAL_CONTEXT(' ',#91,'mechanical');
#90=APPLICATION_PROTOCOL_DEFINITION('international standard',
'config_control_design',2010,#91);
#91=APPLICATION_CONTEXT(
'configuration controlled 3D designs of mechanical parts and assemblie
s');
#92=SHAPE_REPRESENTATION('n 01 040 0011nxm001-04-None',(#295),#465);
#93=MANIFOLD_SOLID_BREP('',#94);
#94=CLOSED_SHELL('',(#109,#110,#111,#112,#113,#114,#115,#116,#117,#118,
#119,#120,#121,#122,#123,#124,#125,#126,#127));
#95=CONICAL_SURFACE('',#311,2.,59.9999999999999);
#96=CONICAL_SURFACE('',#313,2.9,45.);
#97=CONICAL_SURFACE('',#314,3.,44.9999999999999);
#98=CONICAL_SURFACE('',#316,2.9,44.9999999999999);
#99=CONICAL_SURFACE('',#317,3.,44.9999999999996);
#100=CONICAL_SURFACE('',#319,2.9,45.);
#101=CONICAL_SURFACE('',#321,3.,45.0000000000001);
#102=CONICAL_SURFACE('',#327,3.,45.);
#103=CONICAL_SURFACE('',#331,1.75,45.);
#104=SPHERICAL_SURFACE('',#308,2.);
#105=PLANE('',#306);
#106=PLANE('',#323);
#107=FACE_OUTER_BOUND('',#175,.T.);
#108=FACE_OUTER_BOUND('',#194,.T.);
#109=ADVANCED_FACE('',(#135,#136),#128,.T.);
#110=ADVANCED_FACE('',(#137,#138),#129,.T.);
#111=ADVANCED_FACE('',(#139,#140),#130,.T.);
#112=ADVANCED_FACE('',(#107),#105,.T.);
#113=ADVANCED_FACE('',(#141,#142),#104,.T.);
#114=ADVANCED_FACE('',(#143,#144),#131,.T.);
#115=ADVANCED_FACE('',(#145,#146),#95,.T.);
#116=ADVANCED_FACE('',(#147,#148),#96,.T.);
#117=ADVANCED_FACE('',(#149,#150),#97,.T.);
#118=ADVANCED_FACE('',(#151,#152),#98,.T.);
#119=ADVANCED_FACE('',(#153,#154),#99,.T.);
#120=ADVANCED_FACE('',(#155,#156),#100,.T.);
#121=ADVANCED_FACE('',(#157,#158),#101,.T.);
#122=ADVANCED_FACE('',(#108),#106,.T.);
#123=ADVANCED_FACE('',(#159,#160),#132,.T.);
#124=ADVANCED_FACE('',(#161,#162),#102,.T.);
#125=ADVANCED_FACE('',(#163,#164),#133,.T.);
#126=ADVANCED_FACE('',(#165,#166),#103,.T.);
#127=ADVANCED_FACE('',(#167,#168),#134,.T.);
#128=CYLINDRICAL_SURFACE('',#298,3.);
#129=CYLINDRICAL_SURFACE('',#301,3.);
#130=CYLINDRICAL_SURFACE('',#304,3.);
#131=CYLINDRICAL_SURFACE('',#310,2.);
#132=CYLINDRICAL_SURFACE('',#325,3.);
#133=CYLINDRICAL_SURFACE('',#329,1.75);
#134=CYLINDRICAL_SURFACE('',#332,3.);
#135=FACE_BOUND('',#169,.T.);
#136=FACE_BOUND('',#170,.T.);
#137=FACE_BOUND('',#171,.T.);
#138=FACE_BOUND('',#172,.T.);
#139=FACE_BOUND('',#173,.T.);
#140=FACE_BOUND('',#174,.T.);
#141=FACE_BOUND('',#176,.T.);
#142=FACE_BOUND('',#177,.T.);
#143=FACE_BOUND('',#178,.T.);
#144=FACE_BOUND('',#179,.T.);
#145=FACE_BOUND('',#180,.T.);
#146=FACE_BOUND('',#181,.T.);
#147=FACE_BOUND('',#182,.T.);
#148=FACE_BOUND('',#183,.T.);
#149=FACE_BOUND('',#184,.T.);
#150=FACE_BOUND('',#185,.T.);
#151=FACE_BOUND('',#186,.T.);
#152=FACE_BOUND('',#187,.T.);
#153=FACE_BOUND('',#188,.T.);
#154=FACE_BOUND('',#189,.T.);
#155=FACE_BOUND('',#190,.T.);
#156=FACE_BOUND('',#191,.T.);
#157=FACE_BOUND('',#192,.T.);
#158=FACE_BOUND('',#193,.T.);
#159=FACE_BOUND('',#195,.T.);
#160=FACE_BOUND('',#196,.T.);
#161=FACE_BOUND('',#197,.T.);
#162=FACE_BOUND('',#198,.T.);
#163=FACE_BOUND('',#199,.T.);
#164=FACE_BOUND('',#200,.T.);
#165=FACE_BOUND('',#201,.T.);
#166=FACE_BOUND('',#202,.T.);
#167=FACE_BOUND('',#203,.T.);
#168=FACE_BOUND('',#204,.T.);
#169=EDGE_LOOP('',(#205));
#170=EDGE_LOOP('',(#206));
#171=EDGE_LOOP('',(#207));
#172=EDGE_LOOP('',(#208));
#173=EDGE_LOOP('',(#209));
#174=EDGE_LOOP('',(#210));
#175=EDGE_LOOP('',(#211));
#176=EDGE_LOOP('',(#212));
#177=EDGE_LOOP('',(#213));
#178=EDGE_LOOP('',(#214));
#179=EDGE_LOOP('',(#215));
#180=EDGE_LOOP('',(#216));
#181=EDGE_LOOP('',(#217));
#182=EDGE_LOOP('',(#218));
#183=EDGE_LOOP('',(#219));
#184=EDGE_LOOP('',(#220));
#185=EDGE_LOOP('',(#221));
#186=EDGE_LOOP('',(#222));
#187=EDGE_LOOP('',(#223));
#188=EDGE_LOOP('',(#224));
#189=EDGE_LOOP('',(#225));
#190=EDGE_LOOP('',(#226));
#191=EDGE_LOOP('',(#227));
#192=EDGE_LOOP('',(#228));
#193=EDGE_LOOP('',(#229));
#194=EDGE_LOOP('',(#230));
#195=EDGE_LOOP('',(#231));
#196=EDGE_LOOP('',(#232));
#197=EDGE_LOOP('',(#233));
#198=EDGE_LOOP('',(#234));
#199=EDGE_LOOP('',(#235));
#200=EDGE_LOOP('',(#236));
#201=EDGE_LOOP('',(#237));
#202=EDGE_LOOP('',(#238));
#203=EDGE_LOOP('',(#239));
#204=EDGE_LOOP('',(#240));
#205=ORIENTED_EDGE('',*,*,#259,.T.);
#206=ORIENTED_EDGE('',*,*,#260,.F.);
#207=ORIENTED_EDGE('',*,*,#261,.T.);
#208=ORIENTED_EDGE('',*,*,#262,.F.);
#209=ORIENTED_EDGE('',*,*,#263,.T.);
#210=ORIENTED_EDGE('',*,*,#264,.F.);
#211=ORIENTED_EDGE('',*,*,#265,.T.);
#212=ORIENTED_EDGE('',*,*,#266,.T.);
#213=ORIENTED_EDGE('',*,*,#265,.F.);
#214=ORIENTED_EDGE('',*,*,#267,.T.);
#215=ORIENTED_EDGE('',*,*,#266,.F.);
#216=ORIENTED_EDGE('',*,*,#264,.T.);
#217=ORIENTED_EDGE('',*,*,#267,.F.);
#218=ORIENTED_EDGE('',*,*,#263,.F.);
#219=ORIENTED_EDGE('',*,*,#268,.T.);
#220=ORIENTED_EDGE('',*,*,#268,.F.);
#221=ORIENTED_EDGE('',*,*,#262,.T.);
#222=ORIENTED_EDGE('',*,*,#261,.F.);
#223=ORIENTED_EDGE('',*,*,#269,.T.);
#224=ORIENTED_EDGE('',*,*,#269,.F.);
#225=ORIENTED_EDGE('',*,*,#260,.T.);
#226=ORIENTED_EDGE('',*,*,#259,.F.);
#227=ORIENTED_EDGE('',*,*,#270,.T.);
#228=ORIENTED_EDGE('',*,*,#270,.F.);
#229=ORIENTED_EDGE('',*,*,#271,.T.);
#230=ORIENTED_EDGE('',*,*,#272,.T.);
#231=ORIENTED_EDGE('',*,*,#273,.F.);
#232=ORIENTED_EDGE('',*,*,#272,.F.);
#233=ORIENTED_EDGE('',*,*,#274,.F.);
#234=ORIENTED_EDGE('',*,*,#273,.T.);
#235=ORIENTED_EDGE('',*,*,#275,.F.);
#236=ORIENTED_EDGE('',*,*,#274,.T.);
#237=ORIENTED_EDGE('',*,*,#276,.F.);
#238=ORIENTED_EDGE('',*,*,#275,.T.);
#239=ORIENTED_EDGE('',*,*,#271,.F.);
#240=ORIENTED_EDGE('',*,*,#276,.T.);
#241=VERTEX_POINT('',#411);
#242=VERTEX_POINT('',#413);
#243=VERTEX_POINT('',#416);
#244=VERTEX_POINT('',#418);
#245=VERTEX_POINT('',#421);
#246=VERTEX_POINT('',#423);
#247=VERTEX_POINT('',#426);
#248=VERTEX_POINT('',#429);
#249=VERTEX_POINT('',#432);
#250=VERTEX_POINT('',#436);
#251=VERTEX_POINT('',#440);
#252=VERTEX_POINT('',#444);
#253=VERTEX_POINT('',#447);
#254=VERTEX_POINT('',#450);
#255=VERTEX_POINT('',#453);
#256=VERTEX_POINT('',#456);
#257=VERTEX_POINT('',#459);
#258=VERTEX_POINT('',#462);
#259=EDGE_CURVE('',#241,#241,#277,.T.);
#260=EDGE_CURVE('',#242,#242,#278,.T.);
#261=EDGE_CURVE('',#243,#243,#279,.T.);
#262=EDGE_CURVE('',#244,#244,#280,.T.);
#263=EDGE_CURVE('',#245,#245,#281,.T.);
#264=EDGE_CURVE('',#246,#246,#282,.T.);
#265=EDGE_CURVE('',#247,#247,#283,.T.);
#266=EDGE_CURVE('',#248,#248,#284,.T.);
#267=EDGE_CURVE('',#249,#249,#285,.T.);
#268=EDGE_CURVE('',#250,#250,#286,.T.);
#269=EDGE_CURVE('',#251,#251,#287,.T.);
#270=EDGE_CURVE('',#252,#252,#288,.T.);
#271=EDGE_CURVE('',#253,#253,#289,.T.);
#272=EDGE_CURVE('',#254,#254,#290,.T.);
#273=EDGE_CURVE('',#255,#255,#291,.T.);
#274=EDGE_CURVE('',#256,#256,#292,.T.);
#275=EDGE_CURVE('',#257,#257,#293,.T.);
#276=EDGE_CURVE('',#258,#258,#294,.T.);
#277=CIRCLE('',#296,3.);
#278=CIRCLE('',#297,3.);
#279=CIRCLE('',#299,3.);
#280=CIRCLE('',#300,3.);
#281=CIRCLE('',#302,3.);
#282=CIRCLE('',#303,3.);
#283=CIRCLE('',#305,1.);
#284=CIRCLE('',#307,2.);
#285=CIRCLE('',#309,2.);
#286=CIRCLE('',#312,2.9);
#287=CIRCLE('',#315,2.9);
#288=CIRCLE('',#318,2.9);
#289=CIRCLE('',#320,3.);
#290=CIRCLE('',#322,3.);
#291=CIRCLE('',#324,3.);
#292=CIRCLE('',#326,1.75);
#293=CIRCLE('',#328,1.75);
#294=CIRCLE('',#330,3.);
#295=AXIS2_PLACEMENT_3D('',#409,#333,#334);
#296=AXIS2_PLACEMENT_3D('',#410,#335,#336);
#297=AXIS2_PLACEMENT_3D('',#412,#337,#338);
#298=AXIS2_PLACEMENT_3D('',#414,#339,#340);
#299=AXIS2_PLACEMENT_3D('',#415,#341,#342);
#300=AXIS2_PLACEMENT_3D('',#417,#343,#344);
#301=AXIS2_PLACEMENT_3D('',#419,#345,#346);
#302=AXIS2_PLACEMENT_3D('',#420,#347,#348);
#303=AXIS2_PLACEMENT_3D('',#422,#349,#350);
#304=AXIS2_PLACEMENT_3D('',#424,#351,#352);
#305=AXIS2_PLACEMENT_3D('',#425,#353,#354);
#306=AXIS2_PLACEMENT_3D('',#427,#355,#356);
#307=AXIS2_PLACEMENT_3D('',#428,#357,#358);
#308=AXIS2_PLACEMENT_3D('',#430,#359,#360);
#309=AXIS2_PLACEMENT_3D('',#431,#361,#362);
#310=AXIS2_PLACEMENT_3D('',#433,#363,#364);
#311=AXIS2_PLACEMENT_3D('',#434,#365,#366);
#312=AXIS2_PLACEMENT_3D('',#435,#367,#368);
#313=AXIS2_PLACEMENT_3D('',#437,#369,#370);
#314=AXIS2_PLACEMENT_3D('',#438,#371,#372);
#315=AXIS2_PLACEMENT_3D('',#439,#373,#374);
#316=AXIS2_PLACEMENT_3D('',#441,#375,#376);
#317=AXIS2_PLACEMENT_3D('',#442,#377,#378);
#318=AXIS2_PLACEMENT_3D('',#443,#379,#380);
#319=AXIS2_PLACEMENT_3D('',#445,#381,#382);
#320=AXIS2_PLACEMENT_3D('',#446,#383,#384);
#321=AXIS2_PLACEMENT_3D('',#448,#385,#386);
#322=AXIS2_PLACEMENT_3D('',#449,#387,#388);
#323=AXIS2_PLACEMENT_3D('',#451,#389,#390);
#324=AXIS2_PLACEMENT_3D('',#452,#391,#392);
#325=AXIS2_PLACEMENT_3D('',#454,#393,#394);
#326=AXIS2_PLACEMENT_3D('',#455,#395,#396);
#327=AXIS2_PLACEMENT_3D('',#457,#397,#398);
#328=AXIS2_PLACEMENT_3D('',#458,#399,#400);
#329=AXIS2_PLACEMENT_3D('',#460,#401,#402);
#330=AXIS2_PLACEMENT_3D('',#461,#403,#404);
#331=AXIS2_PLACEMENT_3D('',#463,#405,#406);
#332=AXIS2_PLACEMENT_3D('',#464,#407,#408);
#333=DIRECTION('',(0.,0.,1.));
#334=DIRECTION('',(1.,0.,0.));
#335=DIRECTION('',(0.,0.,-1.));
#336=DIRECTION('',(-1.,0.,0.));
#337=DIRECTION('',(0.,0.,-1.));
#338=DIRECTION('',(-1.,0.,0.));
#339=DIRECTION('',(0.,0.,-1.));
#340=DIRECTION('',(-1.,0.,0.));
#341=DIRECTION('',(0.,0.,-1.));
#342=DIRECTION('',(-1.,0.,0.));
#343=DIRECTION('',(0.,0.,-1.));
#344=DIRECTION('',(-1.,0.,0.));
#345=DIRECTION('',(0.,0.,-1.));
#346=DIRECTION('',(-1.,0.,0.));
#347=DIRECTION('',(0.,0.,-1.));
#348=DIRECTION('',(-1.,0.,0.));
#349=DIRECTION('',(0.,0.,-1.));
#350=DIRECTION('',(-1.,0.,0.));
#351=DIRECTION('',(0.,0.,-1.));
#352=DIRECTION('',(-1.,0.,0.));
#353=DIRECTION('',(0.,0.,-1.));
#354=DIRECTION('',(-1.,0.,0.));
#355=DIRECTION('',(0.,0.,-1.));
#356=DIRECTION('',(-1.,0.,0.));
#357=DIRECTION('',(0.,0.,-1.));
#358=DIRECTION('',(-1.,0.,0.));
#359=DIRECTION('',(0.,6.12323399573677E-017,-1.));
#360=DIRECTION('',(0.,1.,0.));
#361=DIRECTION('',(0.,0.,-1.));
#362=DIRECTION('',(-1.,0.,0.));
#363=DIRECTION('',(0.,0.,-1.));
#364=DIRECTION('',(-1.,0.,0.));
#365=DIRECTION('',(0.,0.,1.));
#366=DIRECTION('',(1.,0.,2.60100858513084E-017));
#367=DIRECTION('',(0.,0.,-1.));
#368=DIRECTION('',(-1.,0.,0.));
#369=DIRECTION('',(0.,0.,-1.));
#370=DIRECTION('',(-1.,0.,-5.2323646573236E-017));
#371=DIRECTION('',(0.,0.,1.));
#372=DIRECTION('',(1.,0.,4.66974415267936E-017));
#373=DIRECTION('',(0.,0.,-1.));
#374=DIRECTION('',(-1.,0.,0.));
#375=DIRECTION('',(0.,0.,-1.));
#376=DIRECTION('',(-1.,0.,-1.07241854133575E-016));
#377=DIRECTION('',(0.,0.,1.));
#378=DIRECTION('',(1.,0.,-9.08005807465439E-018));
#379=DIRECTION('',(0.,0.,-1.));
#380=DIRECTION('',(-1.,0.,0.));
#381=DIRECTION('',(0.,0.,-1.));
#382=DIRECTION('',(-1.,0.,5.92424758721763E-017));
#383=DIRECTION('',(0.,0.,-1.));
#384=DIRECTION('',(-1.,0.,0.));
#385=DIRECTION('',(0.,0.,1.));
#386=DIRECTION('',(1.,0.,4.82107845392357E-017));
#387=DIRECTION('',(0.,0.,1.));
#388=DIRECTION('',(1.,0.,0.));
#389=DIRECTION('',(0.,0.,1.));
#390=DIRECTION('',(1.,0.,0.));
#391=DIRECTION('',(0.,0.,-1.));
#392=DIRECTION('',(-1.,0.,0.));
#393=DIRECTION('',(0.,0.,-1.));
#394=DIRECTION('',(-1.,0.,0.));
#395=DIRECTION('',(0.,0.,-1.));
#396=DIRECTION('',(-1.,0.,0.));
#397=DIRECTION('',(0.,0.,1.));
#398=DIRECTION('',(1.,0.,-1.29715115352204E-017));
#399=DIRECTION('',(0.,0.,-1.));
#400=DIRECTION('',(-1.,0.,0.));
#401=DIRECTION('',(0.,0.,-1.));
#402=DIRECTION('',(-1.,0.,0.));
#403=DIRECTION('',(0.,0.,-1.));
#404=DIRECTION('',(-1.,0.,0.));
#405=DIRECTION('',(0.,0.,-1.));
#406=DIRECTION('',(-1.,0.,1.12560045858241E-017));
#407=DIRECTION('',(0.,0.,-1.));
#408=DIRECTION('',(-1.,0.,0.));
#409=CARTESIAN_POINT('',(0.,0.,0.));
#410=CARTESIAN_POINT('',(0.,0.,-1.65));
#411=CARTESIAN_POINT('',(-3.,0.,-1.65));
#412=CARTESIAN_POINT('',(0.,0.,-1.95));
#413=CARTESIAN_POINT('',(-3.,0.,-1.95));
#414=CARTESIAN_POINT('',(0.,0.,7.9));
#415=CARTESIAN_POINT('',(0.,0.,-2.15));
#416=CARTESIAN_POINT('',(-3.,0.,-2.15));
#417=CARTESIAN_POINT('',(0.,0.,-2.45));
#418=CARTESIAN_POINT('',(-3.,0.,-2.45));
#419=CARTESIAN_POINT('',(0.,0.,7.9));
#420=CARTESIAN_POINT('',(0.,0.,-2.65));
#421=CARTESIAN_POINT('',(-3.,0.,-2.65));
#422=CARTESIAN_POINT('',(0.,0.,-2.82264973081038));
#423=CARTESIAN_POINT('',(-3.,0.,-2.82264973081038));
#424=CARTESIAN_POINT('',(0.,0.,7.9));
#425=CARTESIAN_POINT('',(0.,0.,-21.1));
#426=CARTESIAN_POINT('',(-1.,0.,-21.1));
#427=CARTESIAN_POINT('',(0.,0.,-21.1));
#428=CARTESIAN_POINT('',(0.,0.,-19.3679491924311));
#429=CARTESIAN_POINT('',(-2.,0.,-19.3679491924311));
#430=CARTESIAN_POINT('',(0.,0.,-19.3679491924311));
#431=CARTESIAN_POINT('',(0.,0.,-3.4));
#432=CARTESIAN_POINT('',(-2.,0.,-3.4));
#433=CARTESIAN_POINT('',(0.,0.,0.));
#434=CARTESIAN_POINT('',(0.,0.,-3.4));
#435=CARTESIAN_POINT('',(0.,0.,-2.55));
#436=CARTESIAN_POINT('',(-2.9,0.,-2.55));
#437=CARTESIAN_POINT('',(0.,0.,-2.55));
#438=CARTESIAN_POINT('',(0.,0.,-2.45));
#439=CARTESIAN_POINT('',(0.,0.,-2.05));
#440=CARTESIAN_POINT('',(-2.9,0.,-2.05));
#441=CARTESIAN_POINT('',(0.,0.,-2.05));
#442=CARTESIAN_POINT('',(0.,0.,-1.95));
#443=CARTESIAN_POINT('',(0.,0.,-1.55));
#444=CARTESIAN_POINT('',(-2.9,0.,-1.55));
#445=CARTESIAN_POINT('',(0.,0.,-1.55));
#446=CARTESIAN_POINT('',(0.,0.,-1.45));
#447=CARTESIAN_POINT('',(-3.,0.,-1.45));
#448=CARTESIAN_POINT('',(0.,0.,-1.45));
#449=CARTESIAN_POINT('',(0.,0.,7.9));
#450=CARTESIAN_POINT('',(3.,0.,7.9));
#451=CARTESIAN_POINT('',(0.,0.,7.9));
#452=CARTESIAN_POINT('',(0.,0.,7.15));
#453=CARTESIAN_POINT('',(-3.,0.,7.15));
#454=CARTESIAN_POINT('',(0.,0.,7.9));
#455=CARTESIAN_POINT('',(0.,0.,5.9));
#456=CARTESIAN_POINT('',(-1.75,0.,5.9));
#457=CARTESIAN_POINT('',(0.,0.,7.15));
#458=CARTESIAN_POINT('',(0.,0.,0.900000000000001));
#459=CARTESIAN_POINT('',(-1.75,0.,0.900000000000001));
#460=CARTESIAN_POINT('',(0.,0.,7.9));
#461=CARTESIAN_POINT('',(0.,0.,-0.350000000000001));
#462=CARTESIAN_POINT('',(-3.,0.,-0.350000000000001));
#463=CARTESIAN_POINT('',(0.,0.,0.900000000000001));
#464=CARTESIAN_POINT('',(0.,0.,7.9));
#465=(
GEOMETRIC_REPRESENTATION_CONTEXT(3)
GLOBAL_UNCERTAINTY_ASSIGNED_CONTEXT((#466))
GLOBAL_UNIT_ASSIGNED_CONTEXT((#472,#468,#467))
REPRESENTATION_CONTEXT('C3D_N_01_040_0011_1','TOP_LEVEL_ASSEMBLY_PART')
);
#466=UNCERTAINTY_MEASURE_WITH_UNIT(LENGTH_MEASURE(2.E-005),#472,
'DISTANCE_ACCURACY_VALUE','Maximum Tolerance applied to model');
#467=(
NAMED_UNIT(*)
SI_UNIT($,.STERADIAN.)
SOLID_ANGLE_UNIT()
);
#468=(
CONVERSION_BASED_UNIT('DEGREE',#470)
NAMED_UNIT(#469)
PLANE_ANGLE_UNIT()
);
#469=DIMENSIONAL_EXPONENTS(0.,0.,0.,0.,0.,0.,0.);
#470=PLANE_ANGLE_MEASURE_WITH_UNIT(PLANE_ANGLE_MEASURE(0.0174532925),#471);
#471=(
NAMED_UNIT(*)
PLANE_ANGLE_UNIT()
SI_UNIT($,.RADIAN.)
);
#472=(
LENGTH_UNIT()
NAMED_UNIT(*)
SI_UNIT(.MILLI.,.METRE.)
);
ENDSEC;
END-ISO-10303-21;
