ISO-10303-21;
HEADER;
/* Generated by software containing ST-Developer
 * from STEP Tools, Inc. (www.steptools.com) 
 */
/* OPTION: using custom schema-name function */

FILE_DESCRIPTION(
/* description */ (''),
/* implementation_level */ '2;1');

FILE_NAME(
/* name */ 'C3D_N_01_040_0012_1.stp',
/* time_stamp */ '2016-03-01T15:41:37+01:00',
/* author */ (''),
/* organization */ (''),
/* preprocessor_version */ 'ST-DEVELOPER v15',
/* originating_system */ 'SIEMENS PLM Software NX 9.0',
/* authorisation */ '');

FILE_SCHEMA (('CONFIG_CONTROL_DESIGN'));
ENDSEC;

DATA;
#10=SHAPE_REPRESENTATION_RELATIONSHIP('None',
'relationship between n 01 040 0012nxm001-04-None and n 01 040 0012nxm
001-04-None',#92,#11);
#11=ADVANCED_BREP_SHAPE_REPRESENTATION('n 01 040 0012nxm001-04-None',(#93),
#285);
#12=CC_DESIGN_APPROVAL(#24,(#82));
#13=CC_DESIGN_APPROVAL(#25,(#84));
#14=CC_DESIGN_APPROVAL(#26,(#31));
#15=APPROVAL_PERSON_ORGANIZATION(#69,#24,#18);
#16=APPROVAL_PERSON_ORGANIZATION(#70,#25,#19);
#17=APPROVAL_PERSON_ORGANIZATION(#71,#26,#20);
#18=APPROVAL_ROLE('approver');
#19=APPROVAL_ROLE('approver');
#20=APPROVAL_ROLE('approver');
#21=APPROVAL_DATE_TIME(#39,#24);
#22=APPROVAL_DATE_TIME(#40,#25);
#23=APPROVAL_DATE_TIME(#41,#26);
#24=APPROVAL(#27,' ');
#25=APPROVAL(#28,' ');
#26=APPROVAL(#29,' ');
#27=APPROVAL_STATUS('not_yet_approved');
#28=APPROVAL_STATUS('not_yet_approved');
#29=APPROVAL_STATUS('not_yet_approved');
#30=CC_DESIGN_SECURITY_CLASSIFICATION(#31,(#84));
#31=SECURITY_CLASSIFICATION(' ',' ',#32);
#32=SECURITY_CLASSIFICATION_LEVEL('confidential');
#33=CC_DESIGN_DATE_AND_TIME_ASSIGNMENT(#37,#35,(#82));
#34=CC_DESIGN_DATE_AND_TIME_ASSIGNMENT(#38,#36,(#31));
#35=DATE_TIME_ROLE('creation_date');
#36=DATE_TIME_ROLE('classification_date');
#37=DATE_AND_TIME(#52,#42);
#38=DATE_AND_TIME(#53,#43);
#39=DATE_AND_TIME(#54,#44);
#40=DATE_AND_TIME(#55,#45);
#41=DATE_AND_TIME(#56,#46);
#42=LOCAL_TIME(0,0,0.,#47);
#43=LOCAL_TIME(0,0,0.,#48);
#44=LOCAL_TIME(0,0,0.,#49);
#45=LOCAL_TIME(0,0,0.,#50);
#46=LOCAL_TIME(0,0,0.,#51);
#47=COORDINATED_UNIVERSAL_TIME_OFFSET(0,0,.BEHIND.);
#48=COORDINATED_UNIVERSAL_TIME_OFFSET(0,0,.BEHIND.);
#49=COORDINATED_UNIVERSAL_TIME_OFFSET(0,0,.BEHIND.);
#50=COORDINATED_UNIVERSAL_TIME_OFFSET(0,0,.BEHIND.);
#51=COORDINATED_UNIVERSAL_TIME_OFFSET(0,0,.BEHIND.);
#52=CALENDAR_DATE(0,1,1);
#53=CALENDAR_DATE(0,1,1);
#54=CALENDAR_DATE(0,1,1);
#55=CALENDAR_DATE(0,1,1);
#56=CALENDAR_DATE(0,1,1);
#57=CC_DESIGN_PERSON_AND_ORGANIZATION_ASSIGNMENT(#65,#61,(#82,#84));
#58=CC_DESIGN_PERSON_AND_ORGANIZATION_ASSIGNMENT(#66,#62,(#86));
#59=CC_DESIGN_PERSON_AND_ORGANIZATION_ASSIGNMENT(#67,#63,(#84));
#60=CC_DESIGN_PERSON_AND_ORGANIZATION_ASSIGNMENT(#68,#64,(#31));
#61=PERSON_AND_ORGANIZATION_ROLE('creator');
#62=PERSON_AND_ORGANIZATION_ROLE('design_owner');
#63=PERSON_AND_ORGANIZATION_ROLE('design_supplier');
#64=PERSON_AND_ORGANIZATION_ROLE('classification_officer');
#65=PERSON_AND_ORGANIZATION(#79,#72);
#66=PERSON_AND_ORGANIZATION(#79,#73);
#67=PERSON_AND_ORGANIZATION(#79,#74);
#68=PERSON_AND_ORGANIZATION(#79,#75);
#69=PERSON_AND_ORGANIZATION(#79,#76);
#70=PERSON_AND_ORGANIZATION(#79,#77);
#71=PERSON_AND_ORGANIZATION(#79,#78);
#72=ORGANIZATION(' ',' ',' ');
#73=ORGANIZATION(' ',' ',' ');
#74=ORGANIZATION(' ',' ',' ');
#75=ORGANIZATION(' ',' ',' ');
#76=ORGANIZATION(' ',' ',' ');
#77=ORGANIZATION(' ',' ',' ');
#78=ORGANIZATION(' ',' ',' ');
#79=PERSON(' ',' ',' ',(' '),$,$);
#80=SHAPE_DEFINITION_REPRESENTATION(#81,#92);
#81=PRODUCT_DEFINITION_SHAPE('','',#82);
#82=PRODUCT_DEFINITION(' ','',#84,#83);
#83=DESIGN_CONTEXT('',#91,'design');
#84=PRODUCT_DEFINITION_FORMATION_WITH_SPECIFIED_SOURCE(' ',' ',#86,
 .NOT_KNOWN.);
#85=PRODUCT_RELATED_PRODUCT_CATEGORY('detail','',(#86));
#86=PRODUCT('n 01 040 0012nxm001-04','n 01 040 0012nxm001-04',' ',(#89));
#87=PRODUCT_CATEGORY('part',' ');
#88=PRODUCT_CATEGORY(' ','');
#89=MECHANICAL_CONTEXT(' ',#91,'mechanical');
#90=APPLICATION_PROTOCOL_DEFINITION('international standard',
'config_control_design',2010,#91);
#91=APPLICATION_CONTEXT(
'configuration controlled 3D designs of mechanical parts and assemblie
s');
#92=SHAPE_REPRESENTATION('n 01 040 0012nxm001-04-None',(#196),#285);
#93=MANIFOLD_SOLID_BREP('',#94);
#94=CLOSED_SHELL('',(#103,#104,#105,#106,#107,#108,#109,#110,#111,#112));
#95=CONICAL_SURFACE('',#208,2.,59.9999999999999);
#96=CONICAL_SURFACE('',#212,2.05,45.);
#97=CONICAL_SURFACE('',#214,3.,45.);
#98=SPHERICAL_SURFACE('',#205,2.);
#99=PLANE('',#201);
#100=PLANE('',#203);
#101=FACE_OUTER_BOUND('',#135,.T.);
#102=FACE_OUTER_BOUND('',#136,.T.);
#103=ADVANCED_FACE('',(#117,#118),#113,.T.);
#104=ADVANCED_FACE('',(#101),#99,.T.);
#105=ADVANCED_FACE('',(#102),#100,.T.);
#106=ADVANCED_FACE('',(#119,#120),#98,.T.);
#107=ADVANCED_FACE('',(#121,#122),#114,.T.);
#108=ADVANCED_FACE('',(#123,#124),#95,.T.);
#109=ADVANCED_FACE('',(#125,#126),#115,.T.);
#110=ADVANCED_FACE('',(#127,#128),#96,.T.);
#111=ADVANCED_FACE('',(#129,#130),#97,.T.);
#112=ADVANCED_FACE('',(#131,#132),#116,.T.);
#113=CYLINDRICAL_SURFACE('',#199,3.);
#114=CYLINDRICAL_SURFACE('',#207,2.);
#115=CYLINDRICAL_SURFACE('',#211,2.05);
#116=CYLINDRICAL_SURFACE('',#215,3.);
#117=FACE_BOUND('',#133,.T.);
#118=FACE_BOUND('',#134,.T.);
#119=FACE_BOUND('',#137,.T.);
#120=FACE_BOUND('',#138,.T.);
#121=FACE_BOUND('',#139,.T.);
#122=FACE_BOUND('',#140,.T.);
#123=FACE_BOUND('',#141,.T.);
#124=FACE_BOUND('',#142,.T.);
#125=FACE_BOUND('',#143,.T.);
#126=FACE_BOUND('',#144,.T.);
#127=FACE_BOUND('',#145,.T.);
#128=FACE_BOUND('',#146,.T.);
#129=FACE_BOUND('',#147,.T.);
#130=FACE_BOUND('',#148,.T.);
#131=FACE_BOUND('',#149,.T.);
#132=FACE_BOUND('',#150,.T.);
#133=EDGE_LOOP('',(#151));
#134=EDGE_LOOP('',(#152));
#135=EDGE_LOOP('',(#153));
#136=EDGE_LOOP('',(#154));
#137=EDGE_LOOP('',(#155));
#138=EDGE_LOOP('',(#156));
#139=EDGE_LOOP('',(#157));
#140=EDGE_LOOP('',(#158));
#141=EDGE_LOOP('',(#159));
#142=EDGE_LOOP('',(#160));
#143=EDGE_LOOP('',(#161));
#144=EDGE_LOOP('',(#162));
#145=EDGE_LOOP('',(#163));
#146=EDGE_LOOP('',(#164));
#147=EDGE_LOOP('',(#165));
#148=EDGE_LOOP('',(#166));
#149=EDGE_LOOP('',(#167));
#150=EDGE_LOOP('',(#168));
#151=ORIENTED_EDGE('',*,*,#178,.F.);
#152=ORIENTED_EDGE('',*,*,#179,.T.);
#153=ORIENTED_EDGE('',*,*,#180,.T.);
#154=ORIENTED_EDGE('',*,*,#181,.T.);
#155=ORIENTED_EDGE('',*,*,#182,.T.);
#156=ORIENTED_EDGE('',*,*,#181,.F.);
#157=ORIENTED_EDGE('',*,*,#183,.T.);
#158=ORIENTED_EDGE('',*,*,#182,.F.);
#159=ORIENTED_EDGE('',*,*,#178,.T.);
#160=ORIENTED_EDGE('',*,*,#183,.F.);
#161=ORIENTED_EDGE('',*,*,#184,.F.);
#162=ORIENTED_EDGE('',*,*,#185,.T.);
#163=ORIENTED_EDGE('',*,*,#179,.F.);
#164=ORIENTED_EDGE('',*,*,#184,.T.);
#165=ORIENTED_EDGE('',*,*,#185,.F.);
#166=ORIENTED_EDGE('',*,*,#186,.T.);
#167=ORIENTED_EDGE('',*,*,#186,.F.);
#168=ORIENTED_EDGE('',*,*,#180,.F.);
#169=VERTEX_POINT('',#258);
#170=VERTEX_POINT('',#260);
#171=VERTEX_POINT('',#263);
#172=VERTEX_POINT('',#266);
#173=VERTEX_POINT('',#269);
#174=VERTEX_POINT('',#272);
#175=VERTEX_POINT('',#276);
#176=VERTEX_POINT('',#278);
#177=VERTEX_POINT('',#282);
#178=EDGE_CURVE('',#169,#169,#187,.T.);
#179=EDGE_CURVE('',#170,#170,#188,.T.);
#180=EDGE_CURVE('',#171,#171,#189,.T.);
#181=EDGE_CURVE('',#172,#172,#190,.T.);
#182=EDGE_CURVE('',#173,#173,#191,.T.);
#183=EDGE_CURVE('',#174,#174,#192,.T.);
#184=EDGE_CURVE('',#175,#175,#193,.T.);
#185=EDGE_CURVE('',#176,#176,#194,.T.);
#186=EDGE_CURVE('',#177,#177,#195,.T.);
#187=CIRCLE('',#197,3.);
#188=CIRCLE('',#198,3.);
#189=CIRCLE('',#200,3.);
#190=CIRCLE('',#202,1.);
#191=CIRCLE('',#204,2.);
#192=CIRCLE('',#206,2.);
#193=CIRCLE('',#209,2.05);
#194=CIRCLE('',#210,2.05);
#195=CIRCLE('',#213,3.);
#196=AXIS2_PLACEMENT_3D('',#256,#216,#217);
#197=AXIS2_PLACEMENT_3D('',#257,#218,#219);
#198=AXIS2_PLACEMENT_3D('',#259,#220,#221);
#199=AXIS2_PLACEMENT_3D('',#261,#222,#223);
#200=AXIS2_PLACEMENT_3D('',#262,#224,#225);
#201=AXIS2_PLACEMENT_3D('',#264,#226,#227);
#202=AXIS2_PLACEMENT_3D('',#265,#228,#229);
#203=AXIS2_PLACEMENT_3D('',#267,#230,#231);
#204=AXIS2_PLACEMENT_3D('',#268,#232,#233);
#205=AXIS2_PLACEMENT_3D('',#270,#234,#235);
#206=AXIS2_PLACEMENT_3D('',#271,#236,#237);
#207=AXIS2_PLACEMENT_3D('',#273,#238,#239);
#208=AXIS2_PLACEMENT_3D('',#274,#240,#241);
#209=AXIS2_PLACEMENT_3D('',#275,#242,#243);
#210=AXIS2_PLACEMENT_3D('',#277,#244,#245);
#211=AXIS2_PLACEMENT_3D('',#279,#246,#247);
#212=AXIS2_PLACEMENT_3D('',#280,#248,#249);
#213=AXIS2_PLACEMENT_3D('',#281,#250,#251);
#214=AXIS2_PLACEMENT_3D('',#283,#252,#253);
#215=AXIS2_PLACEMENT_3D('',#284,#254,#255);
#216=DIRECTION('',(0.,0.,1.));
#217=DIRECTION('',(1.,0.,0.));
#218=DIRECTION('',(0.,0.,-1.));
#219=DIRECTION('',(-1.,0.,0.));
#220=DIRECTION('',(0.,0.,-1.));
#221=DIRECTION('',(-1.,0.,0.));
#222=DIRECTION('',(0.,0.,-1.));
#223=DIRECTION('',(-1.,0.,0.));
#224=DIRECTION('',(0.,0.,1.));
#225=DIRECTION('',(1.,0.,0.));
#226=DIRECTION('',(0.,0.,1.));
#227=DIRECTION('',(1.,0.,0.));
#228=DIRECTION('',(0.,0.,-1.));
#229=DIRECTION('',(-1.,0.,0.));
#230=DIRECTION('',(0.,0.,-1.));
#231=DIRECTION('',(-1.,0.,0.));
#232=DIRECTION('',(0.,0.,-1.));
#233=DIRECTION('',(-1.,0.,0.));
#234=DIRECTION('',(0.,6.12323399573677E-017,-1.));
#235=DIRECTION('',(0.,1.,0.));
#236=DIRECTION('',(0.,0.,-1.));
#237=DIRECTION('',(-1.,0.,0.));
#238=DIRECTION('',(0.,0.,-1.));
#239=DIRECTION('',(-1.,0.,0.));
#240=DIRECTION('',(0.,0.,1.));
#241=DIRECTION('',(1.,0.,2.60100858513084E-017));
#242=DIRECTION('',(0.,0.,-1.));
#243=DIRECTION('',(-1.,0.,0.));
#244=DIRECTION('',(0.,0.,-1.));
#245=DIRECTION('',(-1.,0.,0.));
#246=DIRECTION('',(0.,0.,-1.));
#247=DIRECTION('',(-1.,0.,0.));
#248=DIRECTION('',(0.,0.,-1.));
#249=DIRECTION('',(-1.,0.,1.12526346927292E-017));
#250=DIRECTION('',(0.,0.,-1.));
#251=DIRECTION('',(-1.,0.,0.));
#252=DIRECTION('',(0.,0.,1.));
#253=DIRECTION('',(1.,0.,2.1619185892034E-017));
#254=DIRECTION('',(0.,0.,-1.));
#255=DIRECTION('',(-1.,0.,0.));
#256=CARTESIAN_POINT('',(0.,0.,0.));
#257=CARTESIAN_POINT('',(0.,0.,-2.82264973081038));
#258=CARTESIAN_POINT('',(-3.,0.,-2.82264973081038));
#259=CARTESIAN_POINT('',(0.,0.,-0.0500000000000014));
#260=CARTESIAN_POINT('',(-3.,0.,-0.0500000000000014));
#261=CARTESIAN_POINT('',(0.,0.,7.9));
#262=CARTESIAN_POINT('',(0.,0.,7.9));
#263=CARTESIAN_POINT('',(3.,0.,7.9));
#264=CARTESIAN_POINT('',(0.,0.,7.9));
#265=CARTESIAN_POINT('',(0.,0.,-21.1));
#266=CARTESIAN_POINT('',(-1.,0.,-21.1));
#267=CARTESIAN_POINT('',(0.,0.,-21.1));
#268=CARTESIAN_POINT('',(0.,0.,-19.3679491924311));
#269=CARTESIAN_POINT('',(-2.,0.,-19.3679491924311));
#270=CARTESIAN_POINT('',(0.,0.,-19.3679491924311));
#271=CARTESIAN_POINT('',(0.,0.,-3.4));
#272=CARTESIAN_POINT('',(-2.,0.,-3.4));
#273=CARTESIAN_POINT('',(0.,0.,0.));
#274=CARTESIAN_POINT('',(0.,0.,-3.4));
#275=CARTESIAN_POINT('',(0.,0.,0.900000000000001));
#276=CARTESIAN_POINT('',(-2.05,0.,0.900000000000001));
#277=CARTESIAN_POINT('',(0.,0.,5.9));
#278=CARTESIAN_POINT('',(-2.05,0.,5.9));
#279=CARTESIAN_POINT('',(0.,0.,7.9));
#280=CARTESIAN_POINT('',(0.,0.,0.900000000000001));
#281=CARTESIAN_POINT('',(0.,0.,6.85));
#282=CARTESIAN_POINT('',(-3.,0.,6.85));
#283=CARTESIAN_POINT('',(0.,0.,6.85));
#284=CARTESIAN_POINT('',(0.,0.,7.9));
#285=(
GEOMETRIC_REPRESENTATION_CONTEXT(3)
GLOBAL_UNCERTAINTY_ASSIGNED_CONTEXT((#286))
GLOBAL_UNIT_ASSIGNED_CONTEXT((#292,#288,#287))
REPRESENTATION_CONTEXT('C3D_N_01_040_0012_1','TOP_LEVEL_ASSEMBLY_PART')
);
#286=UNCERTAINTY_MEASURE_WITH_UNIT(LENGTH_MEASURE(2.E-005),#292,
'DISTANCE_ACCURACY_VALUE','Maximum Tolerance applied to model');
#287=(
NAMED_UNIT(*)
SI_UNIT($,.STERADIAN.)
SOLID_ANGLE_UNIT()
);
#288=(
CONVERSION_BASED_UNIT('DEGREE',#290)
NAMED_UNIT(#289)
PLANE_ANGLE_UNIT()
);
#289=DIMENSIONAL_EXPONENTS(0.,0.,0.,0.,0.,0.,0.);
#290=PLANE_ANGLE_MEASURE_WITH_UNIT(PLANE_ANGLE_MEASURE(0.0174532925),#291);
#291=(
NAMED_UNIT(*)
PLANE_ANGLE_UNIT()
SI_UNIT($,.RADIAN.)
);
#292=(
LENGTH_UNIT()
NAMED_UNIT(*)
SI_UNIT(.MILLI.,.METRE.)
);
ENDSEC;
END-ISO-10303-21;
