ISO-10303-21;
HEADER;
/* Generated by software containing ST-Developer
 * from STEP Tools, Inc. (www.steptools.com) 
 */
/* OPTION: using custom schema-name function */

FILE_DESCRIPTION(
/* description */ (''),
/* implementation_level */ '2;1');

FILE_NAME(
/* name */ 'C3D_N_01_040_0013_1.stp',
/* time_stamp */ '2016-03-01T15:42:14+01:00',
/* author */ (''),
/* organization */ (''),
/* preprocessor_version */ 'ST-DEVELOPER v15',
/* originating_system */ 'SIEMENS PLM Software NX 9.0',
/* authorisation */ '');

FILE_SCHEMA (('CONFIG_CONTROL_DESIGN'));
ENDSEC;

DATA;
#10=SHAPE_REPRESENTATION_RELATIONSHIP('None',
'relationship between n 01 040 0013nxm001-04-None and n 01 040 0013nxm
001-04-None',#92,#11);
#11=ADVANCED_BREP_SHAPE_REPRESENTATION('n 01 040 0013nxm001-04-None',(#93),
#345);
#12=CC_DESIGN_APPROVAL(#24,(#82));
#13=CC_DESIGN_APPROVAL(#25,(#84));
#14=CC_DESIGN_APPROVAL(#26,(#31));
#15=APPROVAL_PERSON_ORGANIZATION(#69,#24,#18);
#16=APPROVAL_PERSON_ORGANIZATION(#70,#25,#19);
#17=APPROVAL_PERSON_ORGANIZATION(#71,#26,#20);
#18=APPROVAL_ROLE('approver');
#19=APPROVAL_ROLE('approver');
#20=APPROVAL_ROLE('approver');
#21=APPROVAL_DATE_TIME(#39,#24);
#22=APPROVAL_DATE_TIME(#40,#25);
#23=APPROVAL_DATE_TIME(#41,#26);
#24=APPROVAL(#27,' ');
#25=APPROVAL(#28,' ');
#26=APPROVAL(#29,' ');
#27=APPROVAL_STATUS('not_yet_approved');
#28=APPROVAL_STATUS('not_yet_approved');
#29=APPROVAL_STATUS('not_yet_approved');
#30=CC_DESIGN_SECURITY_CLASSIFICATION(#31,(#84));
#31=SECURITY_CLASSIFICATION(' ',' ',#32);
#32=SECURITY_CLASSIFICATION_LEVEL('confidential');
#33=CC_DESIGN_DATE_AND_TIME_ASSIGNMENT(#37,#35,(#82));
#34=CC_DESIGN_DATE_AND_TIME_ASSIGNMENT(#38,#36,(#31));
#35=DATE_TIME_ROLE('creation_date');
#36=DATE_TIME_ROLE('classification_date');
#37=DATE_AND_TIME(#52,#42);
#38=DATE_AND_TIME(#53,#43);
#39=DATE_AND_TIME(#54,#44);
#40=DATE_AND_TIME(#55,#45);
#41=DATE_AND_TIME(#56,#46);
#42=LOCAL_TIME(0,0,0.,#47);
#43=LOCAL_TIME(0,0,0.,#48);
#44=LOCAL_TIME(0,0,0.,#49);
#45=LOCAL_TIME(0,0,0.,#50);
#46=LOCAL_TIME(0,0,0.,#51);
#47=COORDINATED_UNIVERSAL_TIME_OFFSET(0,0,.BEHIND.);
#48=COORDINATED_UNIVERSAL_TIME_OFFSET(0,0,.BEHIND.);
#49=COORDINATED_UNIVERSAL_TIME_OFFSET(0,0,.BEHIND.);
#50=COORDINATED_UNIVERSAL_TIME_OFFSET(0,0,.BEHIND.);
#51=COORDINATED_UNIVERSAL_TIME_OFFSET(0,0,.BEHIND.);
#52=CALENDAR_DATE(0,1,1);
#53=CALENDAR_DATE(0,1,1);
#54=CALENDAR_DATE(0,1,1);
#55=CALENDAR_DATE(0,1,1);
#56=CALENDAR_DATE(0,1,1);
#57=CC_DESIGN_PERSON_AND_ORGANIZATION_ASSIGNMENT(#65,#61,(#82,#84));
#58=CC_DESIGN_PERSON_AND_ORGANIZATION_ASSIGNMENT(#66,#62,(#86));
#59=CC_DESIGN_PERSON_AND_ORGANIZATION_ASSIGNMENT(#67,#63,(#84));
#60=CC_DESIGN_PERSON_AND_ORGANIZATION_ASSIGNMENT(#68,#64,(#31));
#61=PERSON_AND_ORGANIZATION_ROLE('creator');
#62=PERSON_AND_ORGANIZATION_ROLE('design_owner');
#63=PERSON_AND_ORGANIZATION_ROLE('design_supplier');
#64=PERSON_AND_ORGANIZATION_ROLE('classification_officer');
#65=PERSON_AND_ORGANIZATION(#79,#72);
#66=PERSON_AND_ORGANIZATION(#79,#73);
#67=PERSON_AND_ORGANIZATION(#79,#74);
#68=PERSON_AND_ORGANIZATION(#79,#75);
#69=PERSON_AND_ORGANIZATION(#79,#76);
#70=PERSON_AND_ORGANIZATION(#79,#77);
#71=PERSON_AND_ORGANIZATION(#79,#78);
#72=ORGANIZATION(' ',' ',' ');
#73=ORGANIZATION(' ',' ',' ');
#74=ORGANIZATION(' ',' ',' ');
#75=ORGANIZATION(' ',' ',' ');
#76=ORGANIZATION(' ',' ',' ');
#77=ORGANIZATION(' ',' ',' ');
#78=ORGANIZATION(' ',' ',' ');
#79=PERSON(' ',' ',' ',(' '),$,$);
#80=SHAPE_DEFINITION_REPRESENTATION(#81,#92);
#81=PRODUCT_DEFINITION_SHAPE('','',#82);
#82=PRODUCT_DEFINITION(' ','',#84,#83);
#83=DESIGN_CONTEXT('',#91,'design');
#84=PRODUCT_DEFINITION_FORMATION_WITH_SPECIFIED_SOURCE(' ',' ',#86,
 .NOT_KNOWN.);
#85=PRODUCT_RELATED_PRODUCT_CATEGORY('detail','',(#86));
#86=PRODUCT('n 01 040 0013nxm001-04','n 01 040 0013nxm001-04',' ',(#89));
#87=PRODUCT_CATEGORY('part',' ');
#88=PRODUCT_CATEGORY(' ','');
#89=MECHANICAL_CONTEXT(' ',#91,'mechanical');
#90=APPLICATION_PROTOCOL_DEFINITION('international standard',
'config_control_design',2010,#91);
#91=APPLICATION_CONTEXT(
'configuration controlled 3D designs of mechanical parts and assemblie
s');
#92=SHAPE_REPRESENTATION('n 01 040 0013nxm001-04-None',(#229),#345);
#93=MANIFOLD_SOLID_BREP('',#94);
#94=CLOSED_SHELL('',(#105,#106,#107,#108,#109,#110,#111,#112,#113,#114,
#115,#116,#117));
#95=CONICAL_SURFACE('',#239,2.,59.9999999999999);
#96=CONICAL_SURFACE('',#241,2.9,45.);
#97=CONICAL_SURFACE('',#243,3.,44.9999999999999);
#98=CONICAL_SURFACE('',#249,3.,45.);
#99=CONICAL_SURFACE('',#253,2.5,45.);
#100=SPHERICAL_SURFACE('',#236,2.);
#101=PLANE('',#234);
#102=PLANE('',#245);
#103=FACE_OUTER_BOUND('',#147,.T.);
#104=FACE_OUTER_BOUND('',#158,.T.);
#105=ADVANCED_FACE('',(#123,#124),#118,.T.);
#106=ADVANCED_FACE('',(#103),#101,.T.);
#107=ADVANCED_FACE('',(#125,#126),#100,.T.);
#108=ADVANCED_FACE('',(#127,#128),#119,.T.);
#109=ADVANCED_FACE('',(#129,#130),#95,.T.);
#110=ADVANCED_FACE('',(#131,#132),#96,.T.);
#111=ADVANCED_FACE('',(#133,#134),#97,.T.);
#112=ADVANCED_FACE('',(#104),#102,.T.);
#113=ADVANCED_FACE('',(#135,#136),#120,.T.);
#114=ADVANCED_FACE('',(#137,#138),#98,.T.);
#115=ADVANCED_FACE('',(#139,#140),#121,.T.);
#116=ADVANCED_FACE('',(#141,#142),#99,.T.);
#117=ADVANCED_FACE('',(#143,#144),#122,.T.);
#118=CYLINDRICAL_SURFACE('',#232,3.);
#119=CYLINDRICAL_SURFACE('',#238,2.);
#120=CYLINDRICAL_SURFACE('',#247,3.);
#121=CYLINDRICAL_SURFACE('',#251,2.5);
#122=CYLINDRICAL_SURFACE('',#254,3.);
#123=FACE_BOUND('',#145,.T.);
#124=FACE_BOUND('',#146,.T.);
#125=FACE_BOUND('',#148,.T.);
#126=FACE_BOUND('',#149,.T.);
#127=FACE_BOUND('',#150,.T.);
#128=FACE_BOUND('',#151,.T.);
#129=FACE_BOUND('',#152,.T.);
#130=FACE_BOUND('',#153,.T.);
#131=FACE_BOUND('',#154,.T.);
#132=FACE_BOUND('',#155,.T.);
#133=FACE_BOUND('',#156,.T.);
#134=FACE_BOUND('',#157,.T.);
#135=FACE_BOUND('',#159,.T.);
#136=FACE_BOUND('',#160,.T.);
#137=FACE_BOUND('',#161,.T.);
#138=FACE_BOUND('',#162,.T.);
#139=FACE_BOUND('',#163,.T.);
#140=FACE_BOUND('',#164,.T.);
#141=FACE_BOUND('',#165,.T.);
#142=FACE_BOUND('',#166,.T.);
#143=FACE_BOUND('',#167,.T.);
#144=FACE_BOUND('',#168,.T.);
#145=EDGE_LOOP('',(#169));
#146=EDGE_LOOP('',(#170));
#147=EDGE_LOOP('',(#171));
#148=EDGE_LOOP('',(#172));
#149=EDGE_LOOP('',(#173));
#150=EDGE_LOOP('',(#174));
#151=EDGE_LOOP('',(#175));
#152=EDGE_LOOP('',(#176));
#153=EDGE_LOOP('',(#177));
#154=EDGE_LOOP('',(#178));
#155=EDGE_LOOP('',(#179));
#156=EDGE_LOOP('',(#180));
#157=EDGE_LOOP('',(#181));
#158=EDGE_LOOP('',(#182));
#159=EDGE_LOOP('',(#183));
#160=EDGE_LOOP('',(#184));
#161=EDGE_LOOP('',(#185));
#162=EDGE_LOOP('',(#186));
#163=EDGE_LOOP('',(#187));
#164=EDGE_LOOP('',(#188));
#165=EDGE_LOOP('',(#189));
#166=EDGE_LOOP('',(#190));
#167=EDGE_LOOP('',(#191));
#168=EDGE_LOOP('',(#192));
#169=ORIENTED_EDGE('',*,*,#205,.T.);
#170=ORIENTED_EDGE('',*,*,#206,.F.);
#171=ORIENTED_EDGE('',*,*,#207,.T.);
#172=ORIENTED_EDGE('',*,*,#208,.T.);
#173=ORIENTED_EDGE('',*,*,#207,.F.);
#174=ORIENTED_EDGE('',*,*,#209,.T.);
#175=ORIENTED_EDGE('',*,*,#208,.F.);
#176=ORIENTED_EDGE('',*,*,#206,.T.);
#177=ORIENTED_EDGE('',*,*,#209,.F.);
#178=ORIENTED_EDGE('',*,*,#205,.F.);
#179=ORIENTED_EDGE('',*,*,#210,.T.);
#180=ORIENTED_EDGE('',*,*,#210,.F.);
#181=ORIENTED_EDGE('',*,*,#211,.T.);
#182=ORIENTED_EDGE('',*,*,#212,.T.);
#183=ORIENTED_EDGE('',*,*,#213,.F.);
#184=ORIENTED_EDGE('',*,*,#212,.F.);
#185=ORIENTED_EDGE('',*,*,#214,.F.);
#186=ORIENTED_EDGE('',*,*,#213,.T.);
#187=ORIENTED_EDGE('',*,*,#215,.F.);
#188=ORIENTED_EDGE('',*,*,#214,.T.);
#189=ORIENTED_EDGE('',*,*,#216,.F.);
#190=ORIENTED_EDGE('',*,*,#215,.T.);
#191=ORIENTED_EDGE('',*,*,#211,.F.);
#192=ORIENTED_EDGE('',*,*,#216,.T.);
#193=VERTEX_POINT('',#309);
#194=VERTEX_POINT('',#311);
#195=VERTEX_POINT('',#314);
#196=VERTEX_POINT('',#317);
#197=VERTEX_POINT('',#320);
#198=VERTEX_POINT('',#324);
#199=VERTEX_POINT('',#327);
#200=VERTEX_POINT('',#330);
#201=VERTEX_POINT('',#333);
#202=VERTEX_POINT('',#336);
#203=VERTEX_POINT('',#339);
#204=VERTEX_POINT('',#342);
#205=EDGE_CURVE('',#193,#193,#217,.T.);
#206=EDGE_CURVE('',#194,#194,#218,.T.);
#207=EDGE_CURVE('',#195,#195,#219,.T.);
#208=EDGE_CURVE('',#196,#196,#220,.T.);
#209=EDGE_CURVE('',#197,#197,#221,.T.);
#210=EDGE_CURVE('',#198,#198,#222,.T.);
#211=EDGE_CURVE('',#199,#199,#223,.T.);
#212=EDGE_CURVE('',#200,#200,#224,.T.);
#213=EDGE_CURVE('',#201,#201,#225,.T.);
#214=EDGE_CURVE('',#202,#202,#226,.T.);
#215=EDGE_CURVE('',#203,#203,#227,.T.);
#216=EDGE_CURVE('',#204,#204,#228,.T.);
#217=CIRCLE('',#230,3.);
#218=CIRCLE('',#231,3.);
#219=CIRCLE('',#233,1.);
#220=CIRCLE('',#235,2.);
#221=CIRCLE('',#237,2.);
#222=CIRCLE('',#240,2.9);
#223=CIRCLE('',#242,3.);
#224=CIRCLE('',#244,3.);
#225=CIRCLE('',#246,3.);
#226=CIRCLE('',#248,2.5);
#227=CIRCLE('',#250,2.5);
#228=CIRCLE('',#252,3.);
#229=AXIS2_PLACEMENT_3D('',#307,#255,#256);
#230=AXIS2_PLACEMENT_3D('',#308,#257,#258);
#231=AXIS2_PLACEMENT_3D('',#310,#259,#260);
#232=AXIS2_PLACEMENT_3D('',#312,#261,#262);
#233=AXIS2_PLACEMENT_3D('',#313,#263,#264);
#234=AXIS2_PLACEMENT_3D('',#315,#265,#266);
#235=AXIS2_PLACEMENT_3D('',#316,#267,#268);
#236=AXIS2_PLACEMENT_3D('',#318,#269,#270);
#237=AXIS2_PLACEMENT_3D('',#319,#271,#272);
#238=AXIS2_PLACEMENT_3D('',#321,#273,#274);
#239=AXIS2_PLACEMENT_3D('',#322,#275,#276);
#240=AXIS2_PLACEMENT_3D('',#323,#277,#278);
#241=AXIS2_PLACEMENT_3D('',#325,#279,#280);
#242=AXIS2_PLACEMENT_3D('',#326,#281,#282);
#243=AXIS2_PLACEMENT_3D('',#328,#283,#284);
#244=AXIS2_PLACEMENT_3D('',#329,#285,#286);
#245=AXIS2_PLACEMENT_3D('',#331,#287,#288);
#246=AXIS2_PLACEMENT_3D('',#332,#289,#290);
#247=AXIS2_PLACEMENT_3D('',#334,#291,#292);
#248=AXIS2_PLACEMENT_3D('',#335,#293,#294);
#249=AXIS2_PLACEMENT_3D('',#337,#295,#296);
#250=AXIS2_PLACEMENT_3D('',#338,#297,#298);
#251=AXIS2_PLACEMENT_3D('',#340,#299,#300);
#252=AXIS2_PLACEMENT_3D('',#341,#301,#302);
#253=AXIS2_PLACEMENT_3D('',#343,#303,#304);
#254=AXIS2_PLACEMENT_3D('',#344,#305,#306);
#255=DIRECTION('',(0.,0.,1.));
#256=DIRECTION('',(1.,0.,0.));
#257=DIRECTION('',(0.,0.,-1.));
#258=DIRECTION('',(-1.,0.,0.));
#259=DIRECTION('',(0.,0.,-1.));
#260=DIRECTION('',(-1.,0.,0.));
#261=DIRECTION('',(0.,0.,-1.));
#262=DIRECTION('',(-1.,0.,0.));
#263=DIRECTION('',(0.,0.,-1.));
#264=DIRECTION('',(-1.,0.,0.));
#265=DIRECTION('',(0.,0.,-1.));
#266=DIRECTION('',(-1.,0.,0.));
#267=DIRECTION('',(0.,0.,-1.));
#268=DIRECTION('',(-1.,0.,0.));
#269=DIRECTION('',(0.,6.12323399573677E-017,-1.));
#270=DIRECTION('',(0.,1.,0.));
#271=DIRECTION('',(0.,0.,-1.));
#272=DIRECTION('',(-1.,0.,0.));
#273=DIRECTION('',(0.,0.,-1.));
#274=DIRECTION('',(-1.,0.,0.));
#275=DIRECTION('',(0.,0.,1.));
#276=DIRECTION('',(1.,0.,2.60100858513084E-017));
#277=DIRECTION('',(0.,0.,-1.));
#278=DIRECTION('',(-1.,0.,0.));
#279=DIRECTION('',(0.,0.,-1.));
#280=DIRECTION('',(-1.,0.,-5.2323646573236E-017));
#281=DIRECTION('',(0.,0.,-1.));
#282=DIRECTION('',(-1.,0.,0.));
#283=DIRECTION('',(0.,0.,1.));
#284=DIRECTION('',(1.,0.,4.66974415267936E-017));
#285=DIRECTION('',(0.,0.,1.));
#286=DIRECTION('',(1.,0.,0.));
#287=DIRECTION('',(0.,0.,1.));
#288=DIRECTION('',(1.,0.,0.));
#289=DIRECTION('',(0.,0.,-1.));
#290=DIRECTION('',(-1.,0.,0.));
#291=DIRECTION('',(0.,0.,-1.));
#292=DIRECTION('',(-1.,0.,0.));
#293=DIRECTION('',(0.,0.,-1.));
#294=DIRECTION('',(-1.,0.,0.));
#295=DIRECTION('',(0.,0.,1.));
#296=DIRECTION('',(1.,0.,-4.06440694770239E-017));
#297=DIRECTION('',(0.,0.,-1.));
#298=DIRECTION('',(-1.,0.,0.));
#299=DIRECTION('',(0.,0.,-1.));
#300=DIRECTION('',(-1.,0.,0.));
#301=DIRECTION('',(0.,0.,-1.));
#302=DIRECTION('',(-1.,0.,0.));
#303=DIRECTION('',(0.,0.,-1.));
#304=DIRECTION('',(-1.,0.,1.12475836347623E-017));
#305=DIRECTION('',(0.,0.,-1.));
#306=DIRECTION('',(-1.,0.,0.));
#307=CARTESIAN_POINT('',(0.,0.,0.));
#308=CARTESIAN_POINT('',(0.,0.,-2.65));
#309=CARTESIAN_POINT('',(-3.,0.,-2.65));
#310=CARTESIAN_POINT('',(0.,0.,-2.82264973081038));
#311=CARTESIAN_POINT('',(-3.,0.,-2.82264973081038));
#312=CARTESIAN_POINT('',(0.,0.,7.9));
#313=CARTESIAN_POINT('',(0.,0.,-21.1));
#314=CARTESIAN_POINT('',(-1.,0.,-21.1));
#315=CARTESIAN_POINT('',(0.,0.,-21.1));
#316=CARTESIAN_POINT('',(0.,0.,-19.3679491924311));
#317=CARTESIAN_POINT('',(-2.,0.,-19.3679491924311));
#318=CARTESIAN_POINT('',(0.,0.,-19.3679491924311));
#319=CARTESIAN_POINT('',(0.,0.,-3.4));
#320=CARTESIAN_POINT('',(-2.,0.,-3.4));
#321=CARTESIAN_POINT('',(0.,0.,0.));
#322=CARTESIAN_POINT('',(0.,0.,-3.4));
#323=CARTESIAN_POINT('',(0.,0.,-2.55));
#324=CARTESIAN_POINT('',(-2.9,0.,-2.55));
#325=CARTESIAN_POINT('',(0.,0.,-2.55));
#326=CARTESIAN_POINT('',(0.,0.,-2.45));
#327=CARTESIAN_POINT('',(-3.,0.,-2.45));
#328=CARTESIAN_POINT('',(0.,0.,-2.45));
#329=CARTESIAN_POINT('',(0.,0.,7.9));
#330=CARTESIAN_POINT('',(3.,0.,7.9));
#331=CARTESIAN_POINT('',(0.,0.,7.9));
#332=CARTESIAN_POINT('',(0.,0.,6.4));
#333=CARTESIAN_POINT('',(-3.,0.,6.4));
#334=CARTESIAN_POINT('',(0.,0.,7.9));
#335=CARTESIAN_POINT('',(0.,0.,5.9));
#336=CARTESIAN_POINT('',(-2.5,0.,5.9));
#337=CARTESIAN_POINT('',(0.,0.,6.4));
#338=CARTESIAN_POINT('',(0.,0.,0.900000000000001));
#339=CARTESIAN_POINT('',(-2.5,0.,0.900000000000001));
#340=CARTESIAN_POINT('',(0.,0.,7.9));
#341=CARTESIAN_POINT('',(0.,0.,0.399999999999998));
#342=CARTESIAN_POINT('',(-3.,0.,0.399999999999998));
#343=CARTESIAN_POINT('',(0.,0.,0.900000000000001));
#344=CARTESIAN_POINT('',(0.,0.,7.9));
#345=(
GEOMETRIC_REPRESENTATION_CONTEXT(3)
GLOBAL_UNCERTAINTY_ASSIGNED_CONTEXT((#346))
GLOBAL_UNIT_ASSIGNED_CONTEXT((#352,#348,#347))
REPRESENTATION_CONTEXT('C3D_N_01_040_0013_1','TOP_LEVEL_ASSEMBLY_PART')
);
#346=UNCERTAINTY_MEASURE_WITH_UNIT(LENGTH_MEASURE(2.E-005),#352,
'DISTANCE_ACCURACY_VALUE','Maximum Tolerance applied to model');
#347=(
NAMED_UNIT(*)
SI_UNIT($,.STERADIAN.)
SOLID_ANGLE_UNIT()
);
#348=(
CONVERSION_BASED_UNIT('DEGREE',#350)
NAMED_UNIT(#349)
PLANE_ANGLE_UNIT()
);
#349=DIMENSIONAL_EXPONENTS(0.,0.,0.,0.,0.,0.,0.);
#350=PLANE_ANGLE_MEASURE_WITH_UNIT(PLANE_ANGLE_MEASURE(0.0174532925),#351);
#351=(
NAMED_UNIT(*)
PLANE_ANGLE_UNIT()
SI_UNIT($,.RADIAN.)
);
#352=(
LENGTH_UNIT()
NAMED_UNIT(*)
SI_UNIT(.MILLI.,.METRE.)
);
ENDSEC;
END-ISO-10303-21;
