ISO-10303-21;
HEADER;
/* Generated by software containing ST-Developer
 * from STEP Tools, Inc. (www.steptools.com) 
 */
/* OPTION: using custom schema-name function */

FILE_DESCRIPTION(
/* description */ (''),
/* implementation_level */ '2;1');

FILE_NAME(
/* name */ 'n 02 060 6117 001nxc001-02.stp',
/* time_stamp */ '2019-02-25T15:44:00+01:00',
/* author */ (''),
/* organization */ (''),
/* preprocessor_version */ 'ST-DEVELOPER v16.7',
/* originating_system */ 'SIEMENS PLM Software NX 12.0',
/* authorisation */ '');

FILE_SCHEMA (('AP203_CONFIGURATION_CONTROLLED_3D_DESIGN_OF_MECHANICAL_PARTS_AND_ASSEMBLIES_MIM_LF { 1 0 10303 403 2 1 2}'));
ENDSEC;

DATA;
#10=PROPERTY_DEFINITION_REPRESENTATION(#14,#12);
#11=PROPERTY_DEFINITION_REPRESENTATION(#15,#13);
#12=REPRESENTATION('',(#16),#638);
#13=REPRESENTATION('',(#17),#638);
#14=PROPERTY_DEFINITION('pmi validation property','',#89);
#15=PROPERTY_DEFINITION('pmi validation property','',#89);
#16=VALUE_REPRESENTATION_ITEM('number of annotations',COUNT_MEASURE(0.));
#17=VALUE_REPRESENTATION_ITEM('number of views',COUNT_MEASURE(0.));
#18=SHAPE_REPRESENTATION_RELATIONSHIP('None',
'relationship between pwoeB124075Ahapi-None and pwoeB124075Ahapi-None',
#100,#19);
#19=ADVANCED_BREP_SHAPE_REPRESENTATION('pwoeB124075Ahapi-None',(#245),#638);
#20=CC_DESIGN_APPROVAL(#32,(#90));
#21=CC_DESIGN_APPROVAL(#33,(#92));
#22=CC_DESIGN_APPROVAL(#34,(#39));
#23=APPROVAL_PERSON_ORGANIZATION(#77,#32,#26);
#24=APPROVAL_PERSON_ORGANIZATION(#78,#33,#27);
#25=APPROVAL_PERSON_ORGANIZATION(#79,#34,#28);
#26=APPROVAL_ROLE('approver');
#27=APPROVAL_ROLE('approver');
#28=APPROVAL_ROLE('approver');
#29=APPROVAL_DATE_TIME(#47,#32);
#30=APPROVAL_DATE_TIME(#48,#33);
#31=APPROVAL_DATE_TIME(#49,#34);
#32=APPROVAL(#35,' ');
#33=APPROVAL(#36,' ');
#34=APPROVAL(#37,' ');
#35=APPROVAL_STATUS('not_yet_approved');
#36=APPROVAL_STATUS('not_yet_approved');
#37=APPROVAL_STATUS('not_yet_approved');
#38=CC_DESIGN_SECURITY_CLASSIFICATION(#39,(#92));
#39=SECURITY_CLASSIFICATION(' ',' ',#40);
#40=SECURITY_CLASSIFICATION_LEVEL('confidential');
#41=CC_DESIGN_DATE_AND_TIME_ASSIGNMENT(#45,#43,(#90));
#42=CC_DESIGN_DATE_AND_TIME_ASSIGNMENT(#46,#44,(#39));
#43=DATE_TIME_ROLE('creation_date');
#44=DATE_TIME_ROLE('classification_date');
#45=DATE_AND_TIME(#60,#50);
#46=DATE_AND_TIME(#61,#51);
#47=DATE_AND_TIME(#62,#52);
#48=DATE_AND_TIME(#63,#53);
#49=DATE_AND_TIME(#64,#54);
#50=LOCAL_TIME(0,0,0.,#55);
#51=LOCAL_TIME(0,0,0.,#56);
#52=LOCAL_TIME(0,0,0.,#57);
#53=LOCAL_TIME(0,0,0.,#58);
#54=LOCAL_TIME(0,0,0.,#59);
#55=COORDINATED_UNIVERSAL_TIME_OFFSET(0,0,.BEHIND.);
#56=COORDINATED_UNIVERSAL_TIME_OFFSET(0,0,.BEHIND.);
#57=COORDINATED_UNIVERSAL_TIME_OFFSET(0,0,.BEHIND.);
#58=COORDINATED_UNIVERSAL_TIME_OFFSET(0,0,.BEHIND.);
#59=COORDINATED_UNIVERSAL_TIME_OFFSET(0,0,.BEHIND.);
#60=CALENDAR_DATE(0,1,1);
#61=CALENDAR_DATE(0,1,1);
#62=CALENDAR_DATE(0,1,1);
#63=CALENDAR_DATE(0,1,1);
#64=CALENDAR_DATE(0,1,1);
#65=CC_DESIGN_PERSON_AND_ORGANIZATION_ASSIGNMENT(#73,#69,(#90,#92));
#66=CC_DESIGN_PERSON_AND_ORGANIZATION_ASSIGNMENT(#74,#70,(#94));
#67=CC_DESIGN_PERSON_AND_ORGANIZATION_ASSIGNMENT(#75,#71,(#92));
#68=CC_DESIGN_PERSON_AND_ORGANIZATION_ASSIGNMENT(#76,#72,(#39));
#69=PERSON_AND_ORGANIZATION_ROLE('creator');
#70=PERSON_AND_ORGANIZATION_ROLE('design_owner');
#71=PERSON_AND_ORGANIZATION_ROLE('design_supplier');
#72=PERSON_AND_ORGANIZATION_ROLE('classification_officer');
#73=PERSON_AND_ORGANIZATION(#87,#80);
#74=PERSON_AND_ORGANIZATION(#87,#81);
#75=PERSON_AND_ORGANIZATION(#87,#82);
#76=PERSON_AND_ORGANIZATION(#87,#83);
#77=PERSON_AND_ORGANIZATION(#87,#84);
#78=PERSON_AND_ORGANIZATION(#87,#85);
#79=PERSON_AND_ORGANIZATION(#87,#86);
#80=ORGANIZATION(' ',' ',' ');
#81=ORGANIZATION(' ',' ',' ');
#82=ORGANIZATION(' ',' ',' ');
#83=ORGANIZATION(' ',' ',' ');
#84=ORGANIZATION(' ',' ',' ');
#85=ORGANIZATION(' ',' ',' ');
#86=ORGANIZATION(' ',' ',' ');
#87=PERSON(' ',' ',' ',(' '),$,$);
#88=SHAPE_DEFINITION_REPRESENTATION(#89,#100);
#89=PRODUCT_DEFINITION_SHAPE('','',#90);
#90=PRODUCT_DEFINITION(' ','',#92,#91);
#91=DESIGN_CONTEXT('',#99,'design');
#92=PRODUCT_DEFINITION_FORMATION_WITH_SPECIFIED_SOURCE(' ',' ',#94,
 .NOT_KNOWN.);
#93=PRODUCT_RELATED_PRODUCT_CATEGORY('detail','',(#94));
#94=PRODUCT('pwoeB124075Ahapi','pwoeB124075Ahapi',' ',(#97));
#95=PRODUCT_CATEGORY('part',' ');
#96=PRODUCT_CATEGORY(' ','');
#97=MECHANICAL_CONTEXT(' ',#99,'mechanical');
#98=APPLICATION_PROTOCOL_DEFINITION('international standard',
'config_control_design',2010,#99);
#99=APPLICATION_CONTEXT(
'configuration controlled 3D designs of mechanical parts and assemblie
s');
#100=SHAPE_REPRESENTATION('pwoeB124075Ahapi-None',(#458),#638);
#101=OVER_RIDING_STYLED_ITEM('',(#123),#295,#121);
#102=OVER_RIDING_STYLED_ITEM('',(#124),#296,#121);
#103=OVER_RIDING_STYLED_ITEM('',(#125),#297,#121);
#104=OVER_RIDING_STYLED_ITEM('',(#126),#298,#121);
#105=OVER_RIDING_STYLED_ITEM('',(#127),#299,#121);
#106=OVER_RIDING_STYLED_ITEM('',(#128),#301,#121);
#107=OVER_RIDING_STYLED_ITEM('',(#129),#302,#121);
#108=OVER_RIDING_STYLED_ITEM('',(#130),#303,#121);
#109=OVER_RIDING_STYLED_ITEM('',(#131),#304,#121);
#110=OVER_RIDING_STYLED_ITEM('',(#132),#305,#121);
#111=OVER_RIDING_STYLED_ITEM('',(#133),#306,#121);
#112=OVER_RIDING_STYLED_ITEM('',(#134),#307,#121);
#113=OVER_RIDING_STYLED_ITEM('',(#135),#308,#121);
#114=OVER_RIDING_STYLED_ITEM('',(#136),#309,#121);
#115=OVER_RIDING_STYLED_ITEM('',(#137),#310,#121);
#116=OVER_RIDING_STYLED_ITEM('',(#138),#311,#121);
#117=OVER_RIDING_STYLED_ITEM('',(#139),#312,#121);
#118=OVER_RIDING_STYLED_ITEM('',(#140),#313,#121);
#119=OVER_RIDING_STYLED_ITEM('',(#141),#314,#121);
#120=PRESENTATION_LAYER_ASSIGNMENT('1','Layer 1',(#245));
#121=STYLED_ITEM('',(#122),#245);
#122=PRESENTATION_STYLE_ASSIGNMENT((#142));
#123=PRESENTATION_STYLE_ASSIGNMENT((#143));
#124=PRESENTATION_STYLE_ASSIGNMENT((#144));
#125=PRESENTATION_STYLE_ASSIGNMENT((#145));
#126=PRESENTATION_STYLE_ASSIGNMENT((#146));
#127=PRESENTATION_STYLE_ASSIGNMENT((#147));
#128=PRESENTATION_STYLE_ASSIGNMENT((#148));
#129=PRESENTATION_STYLE_ASSIGNMENT((#149));
#130=PRESENTATION_STYLE_ASSIGNMENT((#150));
#131=PRESENTATION_STYLE_ASSIGNMENT((#151));
#132=PRESENTATION_STYLE_ASSIGNMENT((#152));
#133=PRESENTATION_STYLE_ASSIGNMENT((#153));
#134=PRESENTATION_STYLE_ASSIGNMENT((#154));
#135=PRESENTATION_STYLE_ASSIGNMENT((#155));
#136=PRESENTATION_STYLE_ASSIGNMENT((#156));
#137=PRESENTATION_STYLE_ASSIGNMENT((#157));
#138=PRESENTATION_STYLE_ASSIGNMENT((#158));
#139=PRESENTATION_STYLE_ASSIGNMENT((#159));
#140=PRESENTATION_STYLE_ASSIGNMENT((#160));
#141=PRESENTATION_STYLE_ASSIGNMENT((#161));
#142=SURFACE_STYLE_USAGE(.BOTH.,#162);
#143=SURFACE_STYLE_USAGE(.BOTH.,#163);
#144=SURFACE_STYLE_USAGE(.BOTH.,#164);
#145=SURFACE_STYLE_USAGE(.BOTH.,#165);
#146=SURFACE_STYLE_USAGE(.BOTH.,#166);
#147=SURFACE_STYLE_USAGE(.BOTH.,#167);
#148=SURFACE_STYLE_USAGE(.BOTH.,#168);
#149=SURFACE_STYLE_USAGE(.BOTH.,#169);
#150=SURFACE_STYLE_USAGE(.BOTH.,#170);
#151=SURFACE_STYLE_USAGE(.BOTH.,#171);
#152=SURFACE_STYLE_USAGE(.BOTH.,#172);
#153=SURFACE_STYLE_USAGE(.BOTH.,#173);
#154=SURFACE_STYLE_USAGE(.BOTH.,#174);
#155=SURFACE_STYLE_USAGE(.BOTH.,#175);
#156=SURFACE_STYLE_USAGE(.BOTH.,#176);
#157=SURFACE_STYLE_USAGE(.BOTH.,#177);
#158=SURFACE_STYLE_USAGE(.BOTH.,#178);
#159=SURFACE_STYLE_USAGE(.BOTH.,#179);
#160=SURFACE_STYLE_USAGE(.BOTH.,#180);
#161=SURFACE_STYLE_USAGE(.BOTH.,#181);
#162=SURFACE_SIDE_STYLE('',(#182));
#163=SURFACE_SIDE_STYLE('',(#183));
#164=SURFACE_SIDE_STYLE('',(#184));
#165=SURFACE_SIDE_STYLE('',(#185));
#166=SURFACE_SIDE_STYLE('',(#186));
#167=SURFACE_SIDE_STYLE('',(#187));
#168=SURFACE_SIDE_STYLE('',(#188));
#169=SURFACE_SIDE_STYLE('',(#189));
#170=SURFACE_SIDE_STYLE('',(#190));
#171=SURFACE_SIDE_STYLE('',(#191));
#172=SURFACE_SIDE_STYLE('',(#192));
#173=SURFACE_SIDE_STYLE('',(#193));
#174=SURFACE_SIDE_STYLE('',(#194));
#175=SURFACE_SIDE_STYLE('',(#195));
#176=SURFACE_SIDE_STYLE('',(#196));
#177=SURFACE_SIDE_STYLE('',(#197));
#178=SURFACE_SIDE_STYLE('',(#198));
#179=SURFACE_SIDE_STYLE('',(#199));
#180=SURFACE_SIDE_STYLE('',(#200));
#181=SURFACE_SIDE_STYLE('',(#201));
#182=SURFACE_STYLE_FILL_AREA(#202);
#183=SURFACE_STYLE_FILL_AREA(#203);
#184=SURFACE_STYLE_FILL_AREA(#204);
#185=SURFACE_STYLE_FILL_AREA(#205);
#186=SURFACE_STYLE_FILL_AREA(#206);
#187=SURFACE_STYLE_FILL_AREA(#207);
#188=SURFACE_STYLE_FILL_AREA(#208);
#189=SURFACE_STYLE_FILL_AREA(#209);
#190=SURFACE_STYLE_FILL_AREA(#210);
#191=SURFACE_STYLE_FILL_AREA(#211);
#192=SURFACE_STYLE_FILL_AREA(#212);
#193=SURFACE_STYLE_FILL_AREA(#213);
#194=SURFACE_STYLE_FILL_AREA(#214);
#195=SURFACE_STYLE_FILL_AREA(#215);
#196=SURFACE_STYLE_FILL_AREA(#216);
#197=SURFACE_STYLE_FILL_AREA(#217);
#198=SURFACE_STYLE_FILL_AREA(#218);
#199=SURFACE_STYLE_FILL_AREA(#219);
#200=SURFACE_STYLE_FILL_AREA(#220);
#201=SURFACE_STYLE_FILL_AREA(#221);
#202=FILL_AREA_STYLE('',(#222));
#203=FILL_AREA_STYLE('',(#223));
#204=FILL_AREA_STYLE('',(#224));
#205=FILL_AREA_STYLE('',(#225));
#206=FILL_AREA_STYLE('',(#226));
#207=FILL_AREA_STYLE('',(#227));
#208=FILL_AREA_STYLE('',(#228));
#209=FILL_AREA_STYLE('',(#229));
#210=FILL_AREA_STYLE('',(#230));
#211=FILL_AREA_STYLE('',(#231));
#212=FILL_AREA_STYLE('',(#232));
#213=FILL_AREA_STYLE('',(#233));
#214=FILL_AREA_STYLE('',(#234));
#215=FILL_AREA_STYLE('',(#235));
#216=FILL_AREA_STYLE('',(#236));
#217=FILL_AREA_STYLE('',(#237));
#218=FILL_AREA_STYLE('',(#238));
#219=FILL_AREA_STYLE('',(#239));
#220=FILL_AREA_STYLE('',(#240));
#221=FILL_AREA_STYLE('',(#241));
#222=FILL_AREA_STYLE_COLOUR('',#242);
#223=FILL_AREA_STYLE_COLOUR('',#243);
#224=FILL_AREA_STYLE_COLOUR('',#244);
#225=FILL_AREA_STYLE_COLOUR('',#244);
#226=FILL_AREA_STYLE_COLOUR('',#244);
#227=FILL_AREA_STYLE_COLOUR('',#243);
#228=FILL_AREA_STYLE_COLOUR('',#243);
#229=FILL_AREA_STYLE_COLOUR('',#243);
#230=FILL_AREA_STYLE_COLOUR('',#243);
#231=FILL_AREA_STYLE_COLOUR('',#243);
#232=FILL_AREA_STYLE_COLOUR('',#243);
#233=FILL_AREA_STYLE_COLOUR('',#243);
#234=FILL_AREA_STYLE_COLOUR('',#243);
#235=FILL_AREA_STYLE_COLOUR('',#243);
#236=FILL_AREA_STYLE_COLOUR('',#243);
#237=FILL_AREA_STYLE_COLOUR('',#243);
#238=FILL_AREA_STYLE_COLOUR('',#243);
#239=FILL_AREA_STYLE_COLOUR('',#243);
#240=FILL_AREA_STYLE_COLOUR('',#243);
#241=FILL_AREA_STYLE_COLOUR('',#243);
#242=COLOUR_RGB('Medium Steel',0.596063172350652,0.666666666666667,0.686259250782025);
#243=COLOUR_RGB('Deep Orange',1.,0.4,0.);
#244=COLOUR_RGB('Smoke Gray',0.694102388036927,0.694102388036927,0.694102388036927);
#245=MANIFOLD_SOLID_BREP('',#246);
#246=CLOSED_SHELL('',(#295,#296,#297,#298,#299,#300,#301,#302,#303,#304,
#305,#306,#307,#308,#309,#310,#311,#312,#313,#314));
#247=CONICAL_SURFACE('',#474,2.75,30.);
#248=CONICAL_SURFACE('',#480,4.15,45.0000000000002);
#249=CONICAL_SURFACE('',#484,4.15,44.9999999999998);
#250=CYLINDRICAL_SURFACE('',#462,3.);
#251=CYLINDRICAL_SURFACE('',#466,4.76);
#252=CYLINDRICAL_SURFACE('',#472,2.);
#253=CYLINDRICAL_SURFACE('',#478,4.25);
#254=CYLINDRICAL_SURFACE('',#482,4.15);
#255=CYLINDRICAL_SURFACE('',#486,4.25);
#256=CYLINDRICAL_SURFACE('',#490,5.4);
#257=CYLINDRICAL_SURFACE('',#494,6.45);
#258=CYLINDRICAL_SURFACE('',#497,5.5);
#259=FACE_BOUND('',#326,.T.);
#260=FACE_BOUND('',#327,.T.);
#261=FACE_BOUND('',#328,.T.);
#262=FACE_BOUND('',#329,.T.);
#263=FACE_BOUND('',#330,.T.);
#264=FACE_BOUND('',#331,.T.);
#265=FACE_BOUND('',#332,.T.);
#266=FACE_BOUND('',#333,.T.);
#267=FACE_BOUND('',#335,.T.);
#268=FACE_BOUND('',#336,.T.);
#269=FACE_BOUND('',#337,.T.);
#270=FACE_BOUND('',#338,.T.);
#271=FACE_BOUND('',#339,.T.);
#272=FACE_BOUND('',#340,.T.);
#273=FACE_BOUND('',#341,.T.);
#274=FACE_BOUND('',#342,.T.);
#275=FACE_BOUND('',#343,.T.);
#276=FACE_BOUND('',#344,.T.);
#277=FACE_BOUND('',#345,.T.);
#278=FACE_BOUND('',#346,.T.);
#279=FACE_BOUND('',#347,.T.);
#280=FACE_BOUND('',#348,.T.);
#281=FACE_BOUND('',#349,.T.);
#282=FACE_BOUND('',#350,.T.);
#283=FACE_BOUND('',#351,.T.);
#284=FACE_BOUND('',#352,.T.);
#285=FACE_BOUND('',#353,.T.);
#286=FACE_BOUND('',#354,.T.);
#287=FACE_BOUND('',#355,.T.);
#288=FACE_BOUND('',#356,.T.);
#289=FACE_BOUND('',#357,.T.);
#290=FACE_BOUND('',#358,.T.);
#291=FACE_BOUND('',#359,.T.);
#292=FACE_BOUND('',#360,.T.);
#293=FACE_BOUND('',#361,.T.);
#294=FACE_BOUND('',#362,.T.);
#295=ADVANCED_FACE('',(#323),#315,.T.);
#296=ADVANCED_FACE('',(#259,#260),#250,.F.);
#297=ADVANCED_FACE('',(#261,#262),#316,.T.);
#298=ADVANCED_FACE('',(#263,#264),#251,.T.);
#299=ADVANCED_FACE('',(#265,#266),#317,.T.);
#300=ADVANCED_FACE('',(#324),#318,.T.);
#301=ADVANCED_FACE('',(#267,#268),#252,.F.);
#302=ADVANCED_FACE('',(#269,#270),#247,.F.);
#303=ADVANCED_FACE('',(#271,#272),#319,.T.);
#304=ADVANCED_FACE('',(#273,#274),#253,.T.);
#305=ADVANCED_FACE('',(#275,#276),#248,.T.);
#306=ADVANCED_FACE('',(#277,#278),#254,.T.);
#307=ADVANCED_FACE('',(#279,#280),#249,.T.);
#308=ADVANCED_FACE('',(#281,#282),#255,.T.);
#309=ADVANCED_FACE('',(#283,#284),#320,.T.);
#310=ADVANCED_FACE('',(#285,#286),#256,.T.);
#311=ADVANCED_FACE('',(#287,#288),#321,.T.);
#312=ADVANCED_FACE('',(#289,#290),#257,.T.);
#313=ADVANCED_FACE('',(#291,#292),#322,.T.);
#314=ADVANCED_FACE('',(#293,#294),#258,.T.);
#315=PLANE('',#460);
#316=PLANE('',#464);
#317=PLANE('',#468);
#318=PLANE('',#470);
#319=PLANE('',#476);
#320=PLANE('',#488);
#321=PLANE('',#492);
#322=PLANE('',#496);
#323=FACE_OUTER_BOUND('',#325,.T.);
#324=FACE_OUTER_BOUND('',#334,.T.);
#325=EDGE_LOOP('',(#363));
#326=EDGE_LOOP('',(#364));
#327=EDGE_LOOP('',(#365));
#328=EDGE_LOOP('',(#366));
#329=EDGE_LOOP('',(#367));
#330=EDGE_LOOP('',(#368));
#331=EDGE_LOOP('',(#369));
#332=EDGE_LOOP('',(#370));
#333=EDGE_LOOP('',(#371));
#334=EDGE_LOOP('',(#372));
#335=EDGE_LOOP('',(#373));
#336=EDGE_LOOP('',(#374));
#337=EDGE_LOOP('',(#375));
#338=EDGE_LOOP('',(#376));
#339=EDGE_LOOP('',(#377));
#340=EDGE_LOOP('',(#378));
#341=EDGE_LOOP('',(#379));
#342=EDGE_LOOP('',(#380));
#343=EDGE_LOOP('',(#381));
#344=EDGE_LOOP('',(#382));
#345=EDGE_LOOP('',(#383));
#346=EDGE_LOOP('',(#384));
#347=EDGE_LOOP('',(#385));
#348=EDGE_LOOP('',(#386));
#349=EDGE_LOOP('',(#387));
#350=EDGE_LOOP('',(#388));
#351=EDGE_LOOP('',(#389));
#352=EDGE_LOOP('',(#390));
#353=EDGE_LOOP('',(#391));
#354=EDGE_LOOP('',(#392));
#355=EDGE_LOOP('',(#393));
#356=EDGE_LOOP('',(#394));
#357=EDGE_LOOP('',(#395));
#358=EDGE_LOOP('',(#396));
#359=EDGE_LOOP('',(#397));
#360=EDGE_LOOP('',(#398));
#361=EDGE_LOOP('',(#399));
#362=EDGE_LOOP('',(#400));
#363=ORIENTED_EDGE('',*,*,#420,.T.);
#364=ORIENTED_EDGE('',*,*,#420,.F.);
#365=ORIENTED_EDGE('',*,*,#421,.T.);
#366=ORIENTED_EDGE('',*,*,#422,.T.);
#367=ORIENTED_EDGE('',*,*,#421,.F.);
#368=ORIENTED_EDGE('',*,*,#423,.F.);
#369=ORIENTED_EDGE('',*,*,#422,.F.);
#370=ORIENTED_EDGE('',*,*,#424,.F.);
#371=ORIENTED_EDGE('',*,*,#423,.T.);
#372=ORIENTED_EDGE('',*,*,#425,.T.);
#373=ORIENTED_EDGE('',*,*,#426,.T.);
#374=ORIENTED_EDGE('',*,*,#425,.F.);
#375=ORIENTED_EDGE('',*,*,#427,.T.);
#376=ORIENTED_EDGE('',*,*,#426,.F.);
#377=ORIENTED_EDGE('',*,*,#427,.F.);
#378=ORIENTED_EDGE('',*,*,#428,.T.);
#379=ORIENTED_EDGE('',*,*,#429,.T.);
#380=ORIENTED_EDGE('',*,*,#428,.F.);
#381=ORIENTED_EDGE('',*,*,#430,.T.);
#382=ORIENTED_EDGE('',*,*,#429,.F.);
#383=ORIENTED_EDGE('',*,*,#431,.F.);
#384=ORIENTED_EDGE('',*,*,#430,.F.);
#385=ORIENTED_EDGE('',*,*,#432,.F.);
#386=ORIENTED_EDGE('',*,*,#431,.T.);
#387=ORIENTED_EDGE('',*,*,#432,.T.);
#388=ORIENTED_EDGE('',*,*,#433,.T.);
#389=ORIENTED_EDGE('',*,*,#433,.F.);
#390=ORIENTED_EDGE('',*,*,#434,.F.);
#391=ORIENTED_EDGE('',*,*,#435,.F.);
#392=ORIENTED_EDGE('',*,*,#434,.T.);
#393=ORIENTED_EDGE('',*,*,#435,.T.);
#394=ORIENTED_EDGE('',*,*,#436,.T.);
#395=ORIENTED_EDGE('',*,*,#436,.F.);
#396=ORIENTED_EDGE('',*,*,#437,.T.);
#397=ORIENTED_EDGE('',*,*,#438,.T.);
#398=ORIENTED_EDGE('',*,*,#437,.F.);
#399=ORIENTED_EDGE('',*,*,#438,.F.);
#400=ORIENTED_EDGE('',*,*,#424,.T.);
#401=VERTEX_POINT('',#580);
#402=VERTEX_POINT('',#583);
#403=VERTEX_POINT('',#586);
#404=VERTEX_POINT('',#589);
#405=VERTEX_POINT('',#592);
#406=VERTEX_POINT('',#595);
#407=VERTEX_POINT('',#598);
#408=VERTEX_POINT('',#601);
#409=VERTEX_POINT('',#604);
#410=VERTEX_POINT('',#607);
#411=VERTEX_POINT('',#610);
#412=VERTEX_POINT('',#613);
#413=VERTEX_POINT('',#616);
#414=VERTEX_POINT('',#619);
#415=VERTEX_POINT('',#622);
#416=VERTEX_POINT('',#625);
#417=VERTEX_POINT('',#628);
#418=VERTEX_POINT('',#631);
#419=VERTEX_POINT('',#634);
#420=EDGE_CURVE('',#401,#401,#439,.T.);
#421=EDGE_CURVE('',#402,#402,#440,.T.);
#422=EDGE_CURVE('',#403,#403,#441,.T.);
#423=EDGE_CURVE('',#404,#404,#442,.T.);
#424=EDGE_CURVE('',#405,#405,#443,.T.);
#425=EDGE_CURVE('',#406,#406,#444,.T.);
#426=EDGE_CURVE('',#407,#407,#445,.T.);
#427=EDGE_CURVE('',#408,#408,#446,.T.);
#428=EDGE_CURVE('',#409,#409,#447,.T.);
#429=EDGE_CURVE('',#410,#410,#448,.T.);
#430=EDGE_CURVE('',#411,#411,#449,.T.);
#431=EDGE_CURVE('',#412,#412,#450,.T.);
#432=EDGE_CURVE('',#413,#413,#451,.T.);
#433=EDGE_CURVE('',#414,#414,#452,.T.);
#434=EDGE_CURVE('',#415,#415,#453,.T.);
#435=EDGE_CURVE('',#416,#416,#454,.T.);
#436=EDGE_CURVE('',#417,#417,#455,.T.);
#437=EDGE_CURVE('',#418,#418,#456,.T.);
#438=EDGE_CURVE('',#419,#419,#457,.T.);
#439=CIRCLE('',#459,3.);
#440=CIRCLE('',#461,3.);
#441=CIRCLE('',#463,4.76);
#442=CIRCLE('',#465,4.76);
#443=CIRCLE('',#467,5.5);
#444=CIRCLE('',#469,2.);
#445=CIRCLE('',#471,2.);
#446=CIRCLE('',#473,3.78923048454133);
#447=CIRCLE('',#475,4.25);
#448=CIRCLE('',#477,4.25);
#449=CIRCLE('',#479,4.15);
#450=CIRCLE('',#481,4.15);
#451=CIRCLE('',#483,4.25);
#452=CIRCLE('',#485,4.25);
#453=CIRCLE('',#487,5.4);
#454=CIRCLE('',#489,5.4);
#455=CIRCLE('',#491,6.45);
#456=CIRCLE('',#493,6.45);
#457=CIRCLE('',#495,5.5);
#458=AXIS2_PLACEMENT_3D('',#578,#498,#499);
#459=AXIS2_PLACEMENT_3D('',#579,#500,#501);
#460=AXIS2_PLACEMENT_3D('',#581,#502,#503);
#461=AXIS2_PLACEMENT_3D('',#582,#504,#505);
#462=AXIS2_PLACEMENT_3D('',#584,#506,#507);
#463=AXIS2_PLACEMENT_3D('',#585,#508,#509);
#464=AXIS2_PLACEMENT_3D('',#587,#510,#511);
#465=AXIS2_PLACEMENT_3D('',#588,#512,#513);
#466=AXIS2_PLACEMENT_3D('',#590,#514,#515);
#467=AXIS2_PLACEMENT_3D('',#591,#516,#517);
#468=AXIS2_PLACEMENT_3D('',#593,#518,#519);
#469=AXIS2_PLACEMENT_3D('',#594,#520,#521);
#470=AXIS2_PLACEMENT_3D('',#596,#522,#523);
#471=AXIS2_PLACEMENT_3D('',#597,#524,#525);
#472=AXIS2_PLACEMENT_3D('',#599,#526,#527);
#473=AXIS2_PLACEMENT_3D('',#600,#528,#529);
#474=AXIS2_PLACEMENT_3D('',#602,#530,#531);
#475=AXIS2_PLACEMENT_3D('',#603,#532,#533);
#476=AXIS2_PLACEMENT_3D('',#605,#534,#535);
#477=AXIS2_PLACEMENT_3D('',#606,#536,#537);
#478=AXIS2_PLACEMENT_3D('',#608,#538,#539);
#479=AXIS2_PLACEMENT_3D('',#609,#540,#541);
#480=AXIS2_PLACEMENT_3D('',#611,#542,#543);
#481=AXIS2_PLACEMENT_3D('',#612,#544,#545);
#482=AXIS2_PLACEMENT_3D('',#614,#546,#547);
#483=AXIS2_PLACEMENT_3D('',#615,#548,#549);
#484=AXIS2_PLACEMENT_3D('',#617,#550,#551);
#485=AXIS2_PLACEMENT_3D('',#618,#552,#553);
#486=AXIS2_PLACEMENT_3D('',#620,#554,#555);
#487=AXIS2_PLACEMENT_3D('',#621,#556,#557);
#488=AXIS2_PLACEMENT_3D('',#623,#558,#559);
#489=AXIS2_PLACEMENT_3D('',#624,#560,#561);
#490=AXIS2_PLACEMENT_3D('',#626,#562,#563);
#491=AXIS2_PLACEMENT_3D('',#627,#564,#565);
#492=AXIS2_PLACEMENT_3D('',#629,#566,#567);
#493=AXIS2_PLACEMENT_3D('',#630,#568,#569);
#494=AXIS2_PLACEMENT_3D('',#632,#570,#571);
#495=AXIS2_PLACEMENT_3D('',#633,#572,#573);
#496=AXIS2_PLACEMENT_3D('',#635,#574,#575);
#497=AXIS2_PLACEMENT_3D('',#636,#576,#577);
#498=DIRECTION('',(0.,0.,1.));
#499=DIRECTION('',(1.,0.,0.));
#500=DIRECTION('',(1.,0.,0.));
#501=DIRECTION('',(0.,0.,-1.));
#502=DIRECTION('',(1.,0.,0.));
#503=DIRECTION('',(0.,1.,0.));
#504=DIRECTION('',(1.,0.,0.));
#505=DIRECTION('',(0.,0.,-1.));
#506=DIRECTION('',(1.,0.,0.));
#507=DIRECTION('',(0.,0.,-1.));
#508=DIRECTION('',(1.,0.,0.));
#509=DIRECTION('',(0.,0.,-1.));
#510=DIRECTION('',(1.,0.,0.));
#511=DIRECTION('',(0.,0.,-1.));
#512=DIRECTION('',(-1.,0.,0.));
#513=DIRECTION('',(0.,0.,-1.));
#514=DIRECTION('',(1.,0.,0.));
#515=DIRECTION('',(0.,0.,-1.));
#516=DIRECTION('',(-1.,0.,0.));
#517=DIRECTION('',(0.,0.,-1.));
#518=DIRECTION('',(1.,0.,0.));
#519=DIRECTION('',(0.,1.,0.));
#520=DIRECTION('',(-1.,0.,0.));
#521=DIRECTION('',(0.,0.,1.));
#522=DIRECTION('',(-1.,0.,0.));
#523=DIRECTION('',(0.,0.,1.));
#524=DIRECTION('',(-1.,-2.59708488643398E-17,-2.60818506725201E-17));
#525=DIRECTION('',(0.,0.,1.));
#526=DIRECTION('',(1.,-3.30366312945721E-16,-7.54071314130056E-32));
#527=DIRECTION('',(3.25260651745651E-16,1.,2.47774734709291E-16));
#528=DIRECTION('',(-1.,0.,0.));
#529=DIRECTION('',(0.,1.,-9.20475332933033E-16));
#530=DIRECTION('',(-1.,-2.59708488643398E-17,-2.60818506725201E-17));
#531=DIRECTION('',(4.11178016310902E-17,1.,8.2058424742166E-17));
#532=DIRECTION('',(-1.,6.12323399573677E-17,-8.40525181676926E-33));
#533=DIRECTION('',(6.12323399573677E-17,1.,-7.25635963807292E-16));
#534=DIRECTION('',(-1.,0.,0.));
#535=DIRECTION('',(0.,1.,0.));
#536=DIRECTION('',(-1.,-3.91227760087801E-17,6.7762635780344E-17));
#537=DIRECTION('',(-5.10212787052002E-17,1.,-7.19978005166155E-16));
#538=DIRECTION('',(1.,2.54372373184946E-17,3.3881317890172E-17));
#539=DIRECTION('',(-2.54372373184946E-17,1.,0.));
#540=DIRECTION('',(-1.,-7.30022847641228E-17,4.84927134794444E-17));
#541=DIRECTION('',(-5.22507071077351E-17,1.,-8.10090064494544E-16));
#542=DIRECTION('',(-1.,-4.44692297308513E-17,0.));
#543=DIRECTION('',(3.47670267928426E-17,1.,8.89384594617026E-17));
#544=DIRECTION('',(1.,3.91227760087804E-17,6.77626357803444E-17));
#545=DIRECTION('',(-5.22507071077351E-17,1.,1.75759336555269E-16));
#546=DIRECTION('',(1.,6.83182802732445E-17,3.38813178901722E-17));
#547=DIRECTION('',(-5.22507071077351E-17,1.,0.));
#548=DIRECTION('',(1.,7.12845839461422E-17,4.73517084563981E-17));
#549=DIRECTION('',(-1.020425574104E-16,1.,0.));
#550=DIRECTION('',(1.,6.12744792470498E-17,4.79154192713552E-17));
#551=DIRECTION('',(1.27407116818494E-17,1.,8.89384594617007E-17));
#552=DIRECTION('',(-1.,0.,0.));
#553=DIRECTION('',(0.,0.,1.));
#554=DIRECTION('',(1.,1.05200078425073E-16,2.16840434497101E-16));
#555=DIRECTION('',(-1.020425574104E-16,1.,0.));
#556=DIRECTION('',(1.,0.,0.));
#557=DIRECTION('',(0.,0.,1.));
#558=DIRECTION('',(-1.,0.,0.));
#559=DIRECTION('',(0.,1.,0.));
#560=DIRECTION('',(1.,0.,0.));
#561=DIRECTION('',(0.,0.,1.));
#562=DIRECTION('',(1.,-2.92734586571086E-16,-6.34766949444033E-32));
#563=DIRECTION('',(0.,1.,2.19550939928314E-16));
#564=DIRECTION('',(-1.,-1.99221760089211E-16,-2.07037326268686E-16));
#565=DIRECTION('',(0.,1.,-7.96887040356846E-16));
#566=DIRECTION('',(-1.,0.,0.));
#567=DIRECTION('',(0.,1.,0.));
#568=DIRECTION('',(-1.,0.,0.));
#569=DIRECTION('',(0.,0.,-1.));
#570=DIRECTION('',(1.,-2.42816111546233E-16,2.19384796377424E-32));
#571=DIRECTION('',(0.,1.,-1.21408055773116E-16));
#572=DIRECTION('',(-1.,0.,0.));
#573=DIRECTION('',(0.,0.,-1.));
#574=DIRECTION('',(1.,0.,0.));
#575=DIRECTION('',(0.,1.,0.));
#576=DIRECTION('',(1.,9.25510880687479E-16,-6.03382078600628E-16));
#577=DIRECTION('',(-6.30808536718839E-16,1.,7.21435093979012E-17));
#578=CARTESIAN_POINT('',(0.,0.,0.));
#579=CARTESIAN_POINT('',(20.4,-4.06670581983067E-15,4.33680868994201E-16));
#580=CARTESIAN_POINT('',(20.4,-4.06670581983067E-15,-3.));
#581=CARTESIAN_POINT('',(20.4,-5.236,-5.236));
#582=CARTESIAN_POINT('',(42.8,-4.06670581983067E-15,4.33680868994201E-16));
#583=CARTESIAN_POINT('',(42.8,-4.06670581983067E-15,-3.));
#584=CARTESIAN_POINT('',(20.9,-4.06670581983067E-15,4.33680868994201E-16));
#585=CARTESIAN_POINT('',(42.8,-3.5527136788005E-15,3.03576608295941E-15));
#586=CARTESIAN_POINT('',(42.8,-3.5527136788005E-15,-4.76));
#587=CARTESIAN_POINT('',(42.8,-3.80970974931558E-15,1.73472347597681E-15));
#588=CARTESIAN_POINT('',(31.7,-3.5527136788005E-15,3.03576608295941E-15));
#589=CARTESIAN_POINT('',(31.7,-3.5527136788005E-15,-4.76));
#590=CARTESIAN_POINT('',(20.9,-3.5527136788005E-15,3.03576608295941E-15));
#591=CARTESIAN_POINT('',(31.7,4.4543258259646E-15,-3.86623625364207E-15));
#592=CARTESIAN_POINT('',(31.7,4.4543258259646E-15,-5.5));
#593=CARTESIAN_POINT('',(31.7,-6.05,-6.05));
#594=CARTESIAN_POINT('',(17.,-1.20974137140487E-15,-6.81380520450549E-16));
#595=CARTESIAN_POINT('',(17.,-1.20974137140487E-15,2.));
#596=CARTESIAN_POINT('',(17.,-2.60208521396521E-15,7.86328368988959E-16));
#597=CARTESIAN_POINT('',(3.09903810567666,-3.76569982704749E-16,-2.10944492798266E-16));
#598=CARTESIAN_POINT('',(3.09903810567666,-3.76569982704749E-16,2.));
#599=CARTESIAN_POINT('',(1.8,3.81182658537009E-15,-6.81380520450548E-16));
#600=CARTESIAN_POINT('',(0.,-3.46944695195361E-15,3.48789319181818E-15));
#601=CARTESIAN_POINT('',(0.,3.78923048454133,1.54074395550979E-30));
#602=CARTESIAN_POINT('',(1.8,-4.10307105016296E-16,-2.44825810688438E-16));
#603=CARTESIAN_POINT('',(2.60237444818812E-16,-4.33680868994202E-15,3.08395284618099E-15));
#604=CARTESIAN_POINT('',(5.20474889637625E-16,4.25,3.46667389989702E-30));
#605=CARTESIAN_POINT('',(0.,-4.675,4.675));
#606=CARTESIAN_POINT('',(1.6,-5.20417042793042E-15,3.05990652195616E-15));
#607=CARTESIAN_POINT('',(1.6,4.24999999999999,1.15555796663234E-30));
#608=CARTESIAN_POINT('',(1.0842021724855E-16,-2.03497898547957E-17,-2.71050543121376E-17));
#609=CARTESIAN_POINT('',(1.7,-5.20417042793042E-15,3.36187376765236E-15));
#610=CARTESIAN_POINT('',(1.7,4.15,6.93334779979405E-30));
#611=CARTESIAN_POINT('',(1.7,2.22346148654255E-18,-3.73541529739151E-16));
#612=CARTESIAN_POINT('',(1.9,0.,-7.29401246704367E-16));
#613=CARTESIAN_POINT('',(1.9,4.15,-7.70371977754894E-31));
#614=CARTESIAN_POINT('',(1.7,-6.8318280273244E-18,-3.3881317890172E-18));
#615=CARTESIAN_POINT('',(2.,0.,0.));
#616=CARTESIAN_POINT('',(2.,4.25,0.));
#617=CARTESIAN_POINT('',(1.9,-3.06372396235253E-18,-3.7593730070271E-16));
#618=CARTESIAN_POINT('',(18.,-8.93122848576224E-16,1.73472347597681E-15));
#619=CARTESIAN_POINT('',(18.,-8.93122848576224E-16,4.25));
#620=CARTESIAN_POINT('',(2.,-2.57632410337739E-15,-1.7347234759768E-15));
#621=CARTESIAN_POINT('',(18.,1.01372903127395E-15,-1.1855750756129E-15));
#622=CARTESIAN_POINT('',(18.,1.01372903127395E-15,5.4));
#623=CARTESIAN_POINT('',(18.,-5.94,5.94));
#624=CARTESIAN_POINT('',(19.,7.20994444702863E-16,-1.1855750756129E-15));
#625=CARTESIAN_POINT('',(19.,7.20994444702863E-16,5.4));
#626=CARTESIAN_POINT('',(18.18,9.61036805691152E-16,-1.1855750756129E-15));
#627=CARTESIAN_POINT('',(19.,-9.54097911787244E-15,5.13992141030166E-15));
#628=CARTESIAN_POINT('',(19.,6.44999999999999,3.08148791101958E-30));
#629=CARTESIAN_POINT('',(19.,-7.095,7.095));
#630=CARTESIAN_POINT('',(20.2,6.99818621021504E-16,7.83081959736601E-16));
#631=CARTESIAN_POINT('',(20.2,6.99818621021504E-16,-6.45));
#632=CARTESIAN_POINT('',(19.,9.91197954876983E-16,7.83081959736601E-16));
#633=CARTESIAN_POINT('',(20.2,-6.18904930194141E-15,3.07265765026516E-15));
#634=CARTESIAN_POINT('',(20.2,-6.18904930194141E-15,-5.5));
#635=CARTESIAN_POINT('',(20.2,-7.095,-7.095));
#636=CARTESIAN_POINT('',(20.2,-6.18904930194141E-15,3.07265765026516E-15));
#637=MECHANICAL_DESIGN_GEOMETRIC_PRESENTATION_REPRESENTATION('',(#121,#101,
#102,#103,#104,#105,#106,#107,#108,#109,#110,#111,#112,#113,#114,#115,#116,
#117,#118,#119),#638);
#638=(
GEOMETRIC_REPRESENTATION_CONTEXT(3)
GLOBAL_UNCERTAINTY_ASSIGNED_CONTEXT((#639))
GLOBAL_UNIT_ASSIGNED_CONTEXT((#645,#641,#640))
REPRESENTATION_CONTEXT('n 02 060 6117 001nxc001-02',
'TOP_LEVEL_ASSEMBLY_PART')
);
#639=UNCERTAINTY_MEASURE_WITH_UNIT(LENGTH_MEASURE(2.E-5),#645,
'DISTANCE_ACCURACY_VALUE','Maximum Tolerance applied to model');
#640=(
NAMED_UNIT(*)
SI_UNIT($,.STERADIAN.)
SOLID_ANGLE_UNIT()
);
#641=(
CONVERSION_BASED_UNIT('DEGREE',#643)
NAMED_UNIT(#642)
PLANE_ANGLE_UNIT()
);
#642=DIMENSIONAL_EXPONENTS(0.,0.,0.,0.,0.,0.,0.);
#643=PLANE_ANGLE_MEASURE_WITH_UNIT(PLANE_ANGLE_MEASURE(0.0174532925),#644);
#644=(
NAMED_UNIT(*)
PLANE_ANGLE_UNIT()
SI_UNIT($,.RADIAN.)
);
#645=(
LENGTH_UNIT()
NAMED_UNIT(*)
SI_UNIT(.MILLI.,.METRE.)
);
ENDSEC;
END-ISO-10303-21;
