ISO-10303-21;
HEADER;
/* Generated by software containing ST-Developer
 * from STEP Tools, Inc. (www.steptools.com) 
 */
/* OPTION: using custom schema-name function */

FILE_DESCRIPTION(
/* description */ (''),
/* implementation_level */ '2;1');

FILE_NAME(
/* name */ 'n 02 100 6121 002.stp',
/* time_stamp */ '2017-09-13T10:39:20+02:00',
/* author */ (''),
/* organization */ (''),
/* preprocessor_version */ 'ST-DEVELOPER v15',
/* originating_system */ 'SIEMENS PLM Software NX 9.0',
/* authorisation */ '');

FILE_SCHEMA (('AUTOMOTIVE_DESIGN { 1 0 10303 214 3 1 1 1 }'));
ENDSEC;

DATA;
#10=SHAPE_REPRESENTATION_RELATIONSHIP('None',
'relationship between n 02 100 6121 002nxm001-03-None and n 02 100 612
1 002nxm001-03-None',#22,#11);
#11=ADVANCED_BREP_SHAPE_REPRESENTATION(
'n 02 100 6121 002nxm001-03-None',(#69),#382);
#12=SHAPE_DEFINITION_REPRESENTATION(#13,#22);
#13=PRODUCT_DEFINITION_SHAPE('','',#14);
#14=PRODUCT_DEFINITION(' ','',#16,#15);
#15=PRODUCT_DEFINITION_CONTEXT('part definition',#21,'design');
#16=PRODUCT_DEFINITION_FORMATION_WITH_SPECIFIED_SOURCE(' ',' ',#18,
 .NOT_KNOWN.);
#17=PRODUCT_RELATED_PRODUCT_CATEGORY('part','',(#18));
#18=PRODUCT('n 02 100 6121 002nxm001-03','n 02 100 6121 002nxm001-03',
' ',(#19));
#19=PRODUCT_CONTEXT(' ',#21,'mechanical');
#20=APPLICATION_PROTOCOL_DEFINITION('international standard',
'automotive_design',2010,#21);
#21=APPLICATION_CONTEXT(
'core data for automotive mechanical design processes');
#22=SHAPE_REPRESENTATION('n 02 100 6121 002nxm001-03-None',(#238),#382);
#23=OVER_RIDING_STYLED_ITEM('',(#31),#115,#29);
#24=OVER_RIDING_STYLED_ITEM('',(#32),#116,#29);
#25=OVER_RIDING_STYLED_ITEM('',(#33),#121,#29);
#26=OVER_RIDING_STYLED_ITEM('',(#34),#122,#29);
#27=OVER_RIDING_STYLED_ITEM('',(#35),#123,#29);
#28=PRESENTATION_LAYER_ASSIGNMENT('1','Layer 1',(#69));
#29=STYLED_ITEM('',(#30),#69);
#30=PRESENTATION_STYLE_ASSIGNMENT((#36));
#31=PRESENTATION_STYLE_ASSIGNMENT((#37));
#32=PRESENTATION_STYLE_ASSIGNMENT((#38));
#33=PRESENTATION_STYLE_ASSIGNMENT((#39));
#34=PRESENTATION_STYLE_ASSIGNMENT((#40));
#35=PRESENTATION_STYLE_ASSIGNMENT((#41));
#36=SURFACE_STYLE_USAGE(.BOTH.,#42);
#37=SURFACE_STYLE_USAGE(.BOTH.,#43);
#38=SURFACE_STYLE_USAGE(.BOTH.,#44);
#39=SURFACE_STYLE_USAGE(.BOTH.,#45);
#40=SURFACE_STYLE_USAGE(.BOTH.,#46);
#41=SURFACE_STYLE_USAGE(.BOTH.,#47);
#42=SURFACE_SIDE_STYLE('',(#48));
#43=SURFACE_SIDE_STYLE('',(#49));
#44=SURFACE_SIDE_STYLE('',(#50));
#45=SURFACE_SIDE_STYLE('',(#51));
#46=SURFACE_SIDE_STYLE('',(#52));
#47=SURFACE_SIDE_STYLE('',(#53));
#48=SURFACE_STYLE_FILL_AREA(#54);
#49=SURFACE_STYLE_FILL_AREA(#55);
#50=SURFACE_STYLE_FILL_AREA(#56);
#51=SURFACE_STYLE_FILL_AREA(#57);
#52=SURFACE_STYLE_FILL_AREA(#58);
#53=SURFACE_STYLE_FILL_AREA(#59);
#54=FILL_AREA_STYLE('',(#60));
#55=FILL_AREA_STYLE('',(#61));
#56=FILL_AREA_STYLE('',(#62));
#57=FILL_AREA_STYLE('',(#63));
#58=FILL_AREA_STYLE('',(#64));
#59=FILL_AREA_STYLE('',(#65));
#60=FILL_AREA_STYLE_COLOUR('',#66);
#61=FILL_AREA_STYLE_COLOUR('',#67);
#62=FILL_AREA_STYLE_COLOUR('',#67);
#63=FILL_AREA_STYLE_COLOUR('',#68);
#64=FILL_AREA_STYLE_COLOUR('',#68);
#65=FILL_AREA_STYLE_COLOUR('',#68);
#66=COLOUR_RGB('Medium Steel',0.596063172350652,0.666666666666667,0.686259250782025);
#67=COLOUR_RGB('Smoke Gray',0.694102388036927,0.694102388036927,0.694102388036927);
#68=COLOUR_RGB('Deep Orange',1.,0.4,0.);
#69=MANIFOLD_SOLID_BREP('',#70);
#70=CLOSED_SHELL('',(#108,#109,#110,#111,#112,#113,#114,#115,#116,#117,
#118,#119,#120,#121,#122,#123));
#71=CONICAL_SURFACE('',#250,8.25,30.);
#72=CONICAL_SURFACE('',#268,0.8,45.);
#73=CYLINDRICAL_SURFACE('',#242,7.25);
#74=CYLINDRICAL_SURFACE('',#245,9.5);
#75=CYLINDRICAL_SURFACE('',#249,8.25);
#76=CYLINDRICAL_SURFACE('',#254,8.00000000000486);
#77=CYLINDRICAL_SURFACE('',#258,4.6);
#78=CYLINDRICAL_SURFACE('',#264,2.);
#79=CYLINDRICAL_SURFACE('',#269,1.80000000000026);
#80=FACE_BOUND('',#134,.T.);
#81=FACE_BOUND('',#135,.T.);
#82=FACE_BOUND('',#136,.T.);
#83=FACE_BOUND('',#137,.T.);
#84=FACE_BOUND('',#138,.T.);
#85=FACE_BOUND('',#139,.T.);
#86=FACE_BOUND('',#140,.T.);
#87=FACE_BOUND('',#141,.T.);
#88=FACE_BOUND('',#142,.T.);
#89=FACE_BOUND('',#143,.T.);
#90=FACE_BOUND('',#144,.T.);
#91=FACE_BOUND('',#145,.T.);
#92=FACE_BOUND('',#146,.T.);
#93=FACE_BOUND('',#147,.T.);
#94=FACE_BOUND('',#148,.T.);
#95=FACE_BOUND('',#149,.T.);
#96=FACE_BOUND('',#150,.T.);
#97=FACE_BOUND('',#151,.T.);
#98=FACE_BOUND('',#152,.T.);
#99=FACE_BOUND('',#153,.T.);
#100=FACE_BOUND('',#154,.T.);
#101=FACE_BOUND('',#155,.T.);
#102=FACE_BOUND('',#156,.T.);
#103=FACE_BOUND('',#157,.T.);
#104=FACE_BOUND('',#159,.T.);
#105=FACE_BOUND('',#160,.T.);
#106=FACE_BOUND('',#161,.T.);
#107=FACE_BOUND('',#162,.T.);
#108=ADVANCED_FACE('',(#131),#124,.T.);
#109=ADVANCED_FACE('',(#80,#81),#73,.T.);
#110=ADVANCED_FACE('',(#82,#83),#74,.T.);
#111=ADVANCED_FACE('',(#84,#85),#125,.T.);
#112=ADVANCED_FACE('',(#86,#87),#75,.T.);
#113=ADVANCED_FACE('',(#88,#89),#71,.T.);
#114=ADVANCED_FACE('',(#90,#91),#126,.T.);
#115=ADVANCED_FACE('',(#92,#93),#76,.T.);
#116=ADVANCED_FACE('',(#94,#95),#127,.T.);
#117=ADVANCED_FACE('',(#96,#97),#77,.F.);
#118=ADVANCED_FACE('',(#98,#99),#128,.T.);
#119=ADVANCED_FACE('',(#100,#101),#129,.T.);
#120=ADVANCED_FACE('',(#102,#103),#78,.T.);
#121=ADVANCED_FACE('4-0-49',(#132),#130,.T.);
#122=ADVANCED_FACE('4-0-33',(#104,#105),#72,.T.);
#123=ADVANCED_FACE('4-0-17',(#106,#107),#79,.T.);
#124=PLANE('',#240);
#125=PLANE('',#247);
#126=PLANE('',#252);
#127=PLANE('',#256);
#128=PLANE('',#260);
#129=PLANE('',#263);
#130=PLANE('',#266);
#131=FACE_OUTER_BOUND('',#133,.T.);
#132=FACE_OUTER_BOUND('',#158,.T.);
#133=EDGE_LOOP('',(#163));
#134=EDGE_LOOP('',(#164));
#135=EDGE_LOOP('',(#165));
#136=EDGE_LOOP('',(#166));
#137=EDGE_LOOP('',(#167));
#138=EDGE_LOOP('',(#168));
#139=EDGE_LOOP('',(#169));
#140=EDGE_LOOP('',(#170));
#141=EDGE_LOOP('',(#171));
#142=EDGE_LOOP('',(#172));
#143=EDGE_LOOP('',(#173));
#144=EDGE_LOOP('',(#174));
#145=EDGE_LOOP('',(#175));
#146=EDGE_LOOP('',(#176));
#147=EDGE_LOOP('',(#177));
#148=EDGE_LOOP('',(#178));
#149=EDGE_LOOP('',(#179));
#150=EDGE_LOOP('',(#180));
#151=EDGE_LOOP('',(#181));
#152=EDGE_LOOP('',(#182));
#153=EDGE_LOOP('',(#183));
#154=EDGE_LOOP('',(#184));
#155=EDGE_LOOP('',(#185));
#156=EDGE_LOOP('',(#186));
#157=EDGE_LOOP('',(#187));
#158=EDGE_LOOP('',(#188));
#159=EDGE_LOOP('',(#189));
#160=EDGE_LOOP('',(#190));
#161=EDGE_LOOP('',(#191));
#162=EDGE_LOOP('',(#192));
#163=ORIENTED_EDGE('',*,*,#208,.F.);
#164=ORIENTED_EDGE('',*,*,#208,.T.);
#165=ORIENTED_EDGE('',*,*,#209,.F.);
#166=ORIENTED_EDGE('',*,*,#210,.T.);
#167=ORIENTED_EDGE('',*,*,#211,.F.);
#168=ORIENTED_EDGE('',*,*,#212,.T.);
#169=ORIENTED_EDGE('',*,*,#210,.F.);
#170=ORIENTED_EDGE('',*,*,#212,.F.);
#171=ORIENTED_EDGE('',*,*,#213,.T.);
#172=ORIENTED_EDGE('',*,*,#209,.T.);
#173=ORIENTED_EDGE('',*,*,#213,.F.);
#174=ORIENTED_EDGE('',*,*,#214,.F.);
#175=ORIENTED_EDGE('',*,*,#211,.T.);
#176=ORIENTED_EDGE('',*,*,#214,.T.);
#177=ORIENTED_EDGE('',*,*,#215,.F.);
#178=ORIENTED_EDGE('',*,*,#215,.T.);
#179=ORIENTED_EDGE('',*,*,#216,.F.);
#180=ORIENTED_EDGE('',*,*,#217,.F.);
#181=ORIENTED_EDGE('',*,*,#216,.T.);
#182=ORIENTED_EDGE('',*,*,#218,.F.);
#183=ORIENTED_EDGE('',*,*,#217,.T.);
#184=ORIENTED_EDGE('',*,*,#219,.T.);
#185=ORIENTED_EDGE('',*,*,#220,.T.);
#186=ORIENTED_EDGE('',*,*,#220,.F.);
#187=ORIENTED_EDGE('',*,*,#218,.T.);
#188=ORIENTED_EDGE('',*,*,#221,.F.);
#189=ORIENTED_EDGE('',*,*,#222,.F.);
#190=ORIENTED_EDGE('',*,*,#221,.T.);
#191=ORIENTED_EDGE('',*,*,#219,.F.);
#192=ORIENTED_EDGE('',*,*,#222,.T.);
#193=VERTEX_POINT('',#336);
#194=VERTEX_POINT('',#339);
#195=VERTEX_POINT('',#342);
#196=VERTEX_POINT('',#344);
#197=VERTEX_POINT('',#347);
#198=VERTEX_POINT('',#350);
#199=VERTEX_POINT('',#354);
#200=VERTEX_POINT('',#357);
#201=VERTEX_POINT('',#360);
#202=VERTEX_POINT('',#363);
#203=VERTEX_POINT('',#366);
#204=VERTEX_POINT('',#369);
#205=VERTEX_POINT('',#371);
#206=VERTEX_POINT('',#375);
#207=VERTEX_POINT('',#378);
#208=EDGE_CURVE('',#193,#193,#223,.T.);
#209=EDGE_CURVE('',#194,#194,#224,.T.);
#210=EDGE_CURVE('',#195,#195,#225,.T.);
#211=EDGE_CURVE('',#196,#196,#226,.T.);
#212=EDGE_CURVE('',#197,#197,#227,.T.);
#213=EDGE_CURVE('',#198,#198,#228,.T.);
#214=EDGE_CURVE('',#199,#199,#229,.T.);
#215=EDGE_CURVE('',#200,#200,#230,.T.);
#216=EDGE_CURVE('',#201,#201,#231,.T.);
#217=EDGE_CURVE('',#202,#202,#232,.T.);
#218=EDGE_CURVE('',#203,#203,#233,.T.);
#219=EDGE_CURVE('',#204,#204,#234,.T.);
#220=EDGE_CURVE('',#205,#205,#235,.T.);
#221=EDGE_CURVE('',#206,#206,#236,.T.);
#222=EDGE_CURVE('',#207,#207,#237,.T.);
#223=CIRCLE('',#239,7.25);
#224=CIRCLE('',#241,7.25);
#225=CIRCLE('',#243,9.5);
#226=CIRCLE('',#244,9.5);
#227=CIRCLE('',#246,8.25);
#228=CIRCLE('',#248,8.25);
#229=CIRCLE('',#251,8.00000000000486);
#230=CIRCLE('',#253,8.00000000000486);
#231=CIRCLE('',#255,4.6);
#232=CIRCLE('',#257,4.6);
#233=CIRCLE('',#259,2.);
#234=CIRCLE('',#261,1.8);
#235=CIRCLE('',#262,2.);
#236=CIRCLE('',#265,0.8);
#237=CIRCLE('',#267,1.80000000000052);
#238=AXIS2_PLACEMENT_3D('',#334,#270,#271);
#239=AXIS2_PLACEMENT_3D('',#335,#272,#273);
#240=AXIS2_PLACEMENT_3D('',#337,#274,#275);
#241=AXIS2_PLACEMENT_3D('',#338,#276,#277);
#242=AXIS2_PLACEMENT_3D('',#340,#278,#279);
#243=AXIS2_PLACEMENT_3D('',#341,#280,#281);
#244=AXIS2_PLACEMENT_3D('',#343,#282,#283);
#245=AXIS2_PLACEMENT_3D('',#345,#284,#285);
#246=AXIS2_PLACEMENT_3D('',#346,#286,#287);
#247=AXIS2_PLACEMENT_3D('',#348,#288,#289);
#248=AXIS2_PLACEMENT_3D('',#349,#290,#291);
#249=AXIS2_PLACEMENT_3D('',#351,#292,#293);
#250=AXIS2_PLACEMENT_3D('',#352,#294,#295);
#251=AXIS2_PLACEMENT_3D('',#353,#296,#297);
#252=AXIS2_PLACEMENT_3D('',#355,#298,#299);
#253=AXIS2_PLACEMENT_3D('',#356,#300,#301);
#254=AXIS2_PLACEMENT_3D('',#358,#302,#303);
#255=AXIS2_PLACEMENT_3D('',#359,#304,#305);
#256=AXIS2_PLACEMENT_3D('',#361,#306,#307);
#257=AXIS2_PLACEMENT_3D('',#362,#308,#309);
#258=AXIS2_PLACEMENT_3D('',#364,#310,#311);
#259=AXIS2_PLACEMENT_3D('',#365,#312,#313);
#260=AXIS2_PLACEMENT_3D('',#367,#314,#315);
#261=AXIS2_PLACEMENT_3D('',#368,#316,#317);
#262=AXIS2_PLACEMENT_3D('',#370,#318,#319);
#263=AXIS2_PLACEMENT_3D('',#372,#320,#321);
#264=AXIS2_PLACEMENT_3D('',#373,#322,#323);
#265=AXIS2_PLACEMENT_3D('',#374,#324,#325);
#266=AXIS2_PLACEMENT_3D('',#376,#326,#327);
#267=AXIS2_PLACEMENT_3D('',#377,#328,#329);
#268=AXIS2_PLACEMENT_3D('',#379,#330,#331);
#269=AXIS2_PLACEMENT_3D('',#380,#332,#333);
#270=DIRECTION('',(0.,0.,1.));
#271=DIRECTION('',(1.,0.,0.));
#272=DIRECTION('',(0.,1.,0.));
#273=DIRECTION('',(0.,0.,-1.));
#274=DIRECTION('',(0.,-1.,0.));
#275=DIRECTION('',(0.,0.,-1.));
#276=DIRECTION('',(0.,1.,0.));
#277=DIRECTION('',(0.,0.,1.));
#278=DIRECTION('',(0.,1.,0.));
#279=DIRECTION('',(0.,0.,1.));
#280=DIRECTION('',(0.,1.,0.));
#281=DIRECTION('',(0.,0.,1.));
#282=DIRECTION('',(0.,1.,0.));
#283=DIRECTION('',(0.,0.,1.));
#284=DIRECTION('',(0.,1.,0.));
#285=DIRECTION('',(0.,0.,1.));
#286=DIRECTION('',(0.,1.,0.));
#287=DIRECTION('',(0.,0.,-1.));
#288=DIRECTION('',(0.,-1.,0.));
#289=DIRECTION('',(0.,0.,-1.));
#290=DIRECTION('',(0.,1.,0.));
#291=DIRECTION('',(0.,0.,1.));
#292=DIRECTION('',(0.,1.,0.));
#293=DIRECTION('',(0.,0.,1.));
#294=DIRECTION('',(0.,1.,0.));
#295=DIRECTION('',(0.,8.8868989680147E-017,1.));
#296=DIRECTION('',(0.,1.,0.));
#297=DIRECTION('',(0.,0.,1.));
#298=DIRECTION('',(0.,1.,0.));
#299=DIRECTION('',(0.,0.,1.));
#300=DIRECTION('',(0.,1.,0.));
#301=DIRECTION('',(0.,0.,1.));
#302=DIRECTION('',(-2.73891016095306E-016,-1.,-1.38500876325493E-016));
#303=DIRECTION('',(1.,-2.16840434496969E-016,0.));
#304=DIRECTION('',(0.,1.,0.));
#305=DIRECTION('',(1.,0.,6.12323399573677E-017));
#306=DIRECTION('',(0.,1.,0.));
#307=DIRECTION('',(0.,0.,1.));
#308=DIRECTION('',(0.,1.,0.));
#309=DIRECTION('',(0.,0.,1.));
#310=DIRECTION('',(0.,1.,0.));
#311=DIRECTION('',(0.,0.,1.));
#312=DIRECTION('',(0.,1.,6.14687582583613E-017));
#313=DIRECTION('',(0.,0.,1.));
#314=DIRECTION('',(0.,1.,0.));
#315=DIRECTION('',(0.,0.,1.));
#316=DIRECTION('',(0.,-1.,0.));
#317=DIRECTION('',(-0.54694413860391,0.,0.837169104331274));
#318=DIRECTION('',(0.,1.,6.14687582583613E-017));
#319=DIRECTION('',(0.,0.,1.));
#320=DIRECTION('',(0.,1.,6.14687582583613E-017));
#321=DIRECTION('',(0.,-6.07153216591882E-017,1.));
#322=DIRECTION('',(0.,1.,6.14687582583613E-017));
#323=DIRECTION('',(0.,0.,1.));
#324=DIRECTION('',(-1.4080441564299E-013,-1.,2.15519462061729E-013));
#325=DIRECTION('',(-0.54694413860391,2.55871712706579E-013,0.837169104331274));
#326=DIRECTION('',(0.,1.,0.));
#327=DIRECTION('',(-0.837169104331274,0.,-0.54694413860391));
#328=DIRECTION('',(-1.40949700158824E-013,-1.,2.15741838899525E-013));
#329=DIRECTION('',(-0.54694413860391,2.58281050867584E-013,0.837169104331274));
#330=DIRECTION('',(-1.41234118747124E-013,-1.,2.15616502098789E-013));
#331=DIRECTION('',(-0.54694413860391,2.57771449846538E-013,0.837169104331274));
#332=DIRECTION('',(-1.40976385069893E-013,-1.,2.15782683624831E-013));
#333=DIRECTION('',(-0.54694413860391,2.5731731560319E-013,0.837169104331274));
#334=CARTESIAN_POINT('',(0.,0.,0.));
#335=CARTESIAN_POINT('',(0.,-37.3,0.));
#336=CARTESIAN_POINT('',(0.,-37.3,-7.25));
#337=CARTESIAN_POINT('',(0.,-37.3,7.25));
#338=CARTESIAN_POINT('',(0.,-18.3320508075689,0.));
#339=CARTESIAN_POINT('',(0.,-18.3320508075689,7.25));
#340=CARTESIAN_POINT('',(0.,0.,0.));
#341=CARTESIAN_POINT('',(0.,-14.1,0.));
#342=CARTESIAN_POINT('',(0.,-14.1,9.5));
#343=CARTESIAN_POINT('',(0.,0.,0.));
#344=CARTESIAN_POINT('',(0.,0.,9.5));
#345=CARTESIAN_POINT('',(0.,0.,0.));
#346=CARTESIAN_POINT('',(0.,-14.1,0.));
#347=CARTESIAN_POINT('',(0.,-14.1,-8.25));
#348=CARTESIAN_POINT('',(0.,-14.1,9.5));
#349=CARTESIAN_POINT('',(0.,-16.6,0.));
#350=CARTESIAN_POINT('',(0.,-16.6,8.25));
#351=CARTESIAN_POINT('',(0.,0.,0.));
#352=CARTESIAN_POINT('',(0.,-16.6,0.));
#353=CARTESIAN_POINT('',(3.86186332694381E-015,0.,1.95286235618946E-015));
#354=CARTESIAN_POINT('',(3.86186332694381E-015,0.,8.00000000000486));
#355=CARTESIAN_POINT('',(0.,0.,8.075));
#356=CARTESIAN_POINT('',(7.94283946676387E-015,14.9,4.01652541343931E-015));
#357=CARTESIAN_POINT('',(7.94283946676387E-015,14.9,8.00000000000486));
#358=CARTESIAN_POINT('',(7.86067216193528E-015,14.6,3.97497515054166E-015));
#359=CARTESIAN_POINT('',(0.,14.9,0.));
#360=CARTESIAN_POINT('',(4.6,14.9,2.81668763803891E-016));
#361=CARTESIAN_POINT('',(-8.46999999825097,14.9,-8.46999999825098));
#362=CARTESIAN_POINT('',(0.,-11.,0.));
#363=CARTESIAN_POINT('',(0.,-11.,4.6));
#364=CARTESIAN_POINT('',(0.,-14.,0.));
#365=CARTESIAN_POINT('',(0.,-11.,7.55681648364974E-033));
#366=CARTESIAN_POINT('',(0.,-11.,2.));
#367=CARTESIAN_POINT('',(0.,-11.,1.9));
#368=CARTESIAN_POINT('',(7.04832372659019E-012,12.7000000000004,-1.07878196437048E-011));
#369=CARTESIAN_POINT('',(-0.984499449479989,12.7000000000004,1.5069043877855));
#370=CARTESIAN_POINT('',(0.,12.7,1.45680957072316E-015));
#371=CARTESIAN_POINT('',(0.,12.7,2.));
#372=CARTESIAN_POINT('',(0.,12.7,1.));
#373=CARTESIAN_POINT('',(0.,-11.,0.));
#374=CARTESIAN_POINT('',(7.47096444281751E-012,15.7000000000002,-1.14349611393549E-011));
#375=CARTESIAN_POINT('',(-0.437555310875657,15.7000000000004,0.669735283453584));
#376=CARTESIAN_POINT('',(1.21801965379043,15.7000000000003,-0.255397969851516));
#377=CARTESIAN_POINT('',(7.3300705294705E-012,14.6999999999997,-1.12199469515464E-011));
#378=CARTESIAN_POINT('',(-0.984499449479989,14.7000000000001,1.5069043877855));
#379=CARTESIAN_POINT('',(7.47138793374722E-012,15.7000000000002,-1.14351615055154E-011));
#380=CARTESIAN_POINT('',(7.33077202363331E-012,14.6999999999997,-1.12206995484918E-011));
#381=MECHANICAL_DESIGN_GEOMETRIC_PRESENTATION_REPRESENTATION('',(#29,#23,
#24,#25,#26,#27),#382);
#382=(
GEOMETRIC_REPRESENTATION_CONTEXT(3)
GLOBAL_UNCERTAINTY_ASSIGNED_CONTEXT((#383))
GLOBAL_UNIT_ASSIGNED_CONTEXT((#389,#385,#384))
REPRESENTATION_CONTEXT('n 02 100 6121 002','TOP_LEVEL_ASSEMBLY_PART')
);
#383=UNCERTAINTY_MEASURE_WITH_UNIT(LENGTH_MEASURE(2.E-005),#389,
'DISTANCE_ACCURACY_VALUE','Maximum Tolerance applied to model');
#384=(
NAMED_UNIT(*)
SI_UNIT($,.STERADIAN.)
SOLID_ANGLE_UNIT()
);
#385=(
CONVERSION_BASED_UNIT('DEGREE',#387)
NAMED_UNIT(#386)
PLANE_ANGLE_UNIT()
);
#386=DIMENSIONAL_EXPONENTS(0.,0.,0.,0.,0.,0.,0.);
#387=PLANE_ANGLE_MEASURE_WITH_UNIT(PLANE_ANGLE_MEASURE(0.0174532925),#388);
#388=(
NAMED_UNIT(*)
PLANE_ANGLE_UNIT()
SI_UNIT($,.RADIAN.)
);
#389=(
LENGTH_UNIT()
NAMED_UNIT(*)
SI_UNIT(.MILLI.,.METRE.)
);
ENDSEC;
END-ISO-10303-21;
