ISO-10303-21;
HEADER;
/* Generated by software containing ST-Developer
 * from STEP Tools, Inc. (www.steptools.com) 
 */
/* OPTION: using custom schema-name function */

FILE_DESCRIPTION(
/* description */ (''),
/* implementation_level */ '2;1');

FILE_NAME(
/* name */ 'n 02 100 6122 002.stp',
/* time_stamp */ '2017-09-13T10:40:13+02:00',
/* author */ (''),
/* organization */ (''),
/* preprocessor_version */ 'ST-DEVELOPER v15',
/* originating_system */ 'SIEMENS PLM Software NX 9.0',
/* authorisation */ '');

FILE_SCHEMA (('CONFIG_CONTROL_DESIGN'));
ENDSEC;

DATA;
#10=SHAPE_REPRESENTATION_RELATIONSHIP('None',
'relationship between n 02 100 6122 002nxm001-03-None and n 02 100 612
2 002nxm001-03-None',#92,#11);
#11=ADVANCED_BREP_SHAPE_REPRESENTATION(
'n 02 100 6122 002nxm001-03-None',(#93),#365);
#12=CC_DESIGN_APPROVAL(#24,(#82));
#13=CC_DESIGN_APPROVAL(#25,(#84));
#14=CC_DESIGN_APPROVAL(#26,(#31));
#15=APPROVAL_PERSON_ORGANIZATION(#69,#24,#18);
#16=APPROVAL_PERSON_ORGANIZATION(#70,#25,#19);
#17=APPROVAL_PERSON_ORGANIZATION(#71,#26,#20);
#18=APPROVAL_ROLE('approver');
#19=APPROVAL_ROLE('approver');
#20=APPROVAL_ROLE('approver');
#21=APPROVAL_DATE_TIME(#39,#24);
#22=APPROVAL_DATE_TIME(#40,#25);
#23=APPROVAL_DATE_TIME(#41,#26);
#24=APPROVAL(#27,' ');
#25=APPROVAL(#28,' ');
#26=APPROVAL(#29,' ');
#27=APPROVAL_STATUS('not_yet_approved');
#28=APPROVAL_STATUS('not_yet_approved');
#29=APPROVAL_STATUS('not_yet_approved');
#30=CC_DESIGN_SECURITY_CLASSIFICATION(#31,(#84));
#31=SECURITY_CLASSIFICATION(' ',' ',#32);
#32=SECURITY_CLASSIFICATION_LEVEL('confidential');
#33=CC_DESIGN_DATE_AND_TIME_ASSIGNMENT(#37,#35,(#82));
#34=CC_DESIGN_DATE_AND_TIME_ASSIGNMENT(#38,#36,(#31));
#35=DATE_TIME_ROLE('creation_date');
#36=DATE_TIME_ROLE('classification_date');
#37=DATE_AND_TIME(#52,#42);
#38=DATE_AND_TIME(#53,#43);
#39=DATE_AND_TIME(#54,#44);
#40=DATE_AND_TIME(#55,#45);
#41=DATE_AND_TIME(#56,#46);
#42=LOCAL_TIME(0,0,0.,#47);
#43=LOCAL_TIME(0,0,0.,#48);
#44=LOCAL_TIME(0,0,0.,#49);
#45=LOCAL_TIME(0,0,0.,#50);
#46=LOCAL_TIME(0,0,0.,#51);
#47=COORDINATED_UNIVERSAL_TIME_OFFSET(0,0,.BEHIND.);
#48=COORDINATED_UNIVERSAL_TIME_OFFSET(0,0,.BEHIND.);
#49=COORDINATED_UNIVERSAL_TIME_OFFSET(0,0,.BEHIND.);
#50=COORDINATED_UNIVERSAL_TIME_OFFSET(0,0,.BEHIND.);
#51=COORDINATED_UNIVERSAL_TIME_OFFSET(0,0,.BEHIND.);
#52=CALENDAR_DATE(0,1,1);
#53=CALENDAR_DATE(0,1,1);
#54=CALENDAR_DATE(0,1,1);
#55=CALENDAR_DATE(0,1,1);
#56=CALENDAR_DATE(0,1,1);
#57=CC_DESIGN_PERSON_AND_ORGANIZATION_ASSIGNMENT(#65,#61,(#82,#84));
#58=CC_DESIGN_PERSON_AND_ORGANIZATION_ASSIGNMENT(#66,#62,(#86));
#59=CC_DESIGN_PERSON_AND_ORGANIZATION_ASSIGNMENT(#67,#63,(#84));
#60=CC_DESIGN_PERSON_AND_ORGANIZATION_ASSIGNMENT(#68,#64,(#31));
#61=PERSON_AND_ORGANIZATION_ROLE('creator');
#62=PERSON_AND_ORGANIZATION_ROLE('design_owner');
#63=PERSON_AND_ORGANIZATION_ROLE('design_supplier');
#64=PERSON_AND_ORGANIZATION_ROLE('classification_officer');
#65=PERSON_AND_ORGANIZATION(#79,#72);
#66=PERSON_AND_ORGANIZATION(#79,#73);
#67=PERSON_AND_ORGANIZATION(#79,#74);
#68=PERSON_AND_ORGANIZATION(#79,#75);
#69=PERSON_AND_ORGANIZATION(#79,#76);
#70=PERSON_AND_ORGANIZATION(#79,#77);
#71=PERSON_AND_ORGANIZATION(#79,#78);
#72=ORGANIZATION(' ',' ',' ');
#73=ORGANIZATION(' ',' ',' ');
#74=ORGANIZATION(' ',' ',' ');
#75=ORGANIZATION(' ',' ',' ');
#76=ORGANIZATION(' ',' ',' ');
#77=ORGANIZATION(' ',' ',' ');
#78=ORGANIZATION(' ',' ',' ');
#79=PERSON(' ',' ',' ',(' '),$,$);
#80=SHAPE_DEFINITION_REPRESENTATION(#81,#92);
#81=PRODUCT_DEFINITION_SHAPE('','',#82);
#82=PRODUCT_DEFINITION(' ','',#84,#83);
#83=DESIGN_CONTEXT('',#91,'design');
#84=PRODUCT_DEFINITION_FORMATION_WITH_SPECIFIED_SOURCE(' ',' ',#86,
 .NOT_KNOWN.);
#85=PRODUCT_RELATED_PRODUCT_CATEGORY('detail','',(#86));
#86=PRODUCT('n 02 100 6122 002nxm001-03','n 02 100 6122 002nxm001-03',
' ',(#89));
#87=PRODUCT_CATEGORY('part',' ');
#88=PRODUCT_CATEGORY(' ','');
#89=MECHANICAL_CONTEXT(' ',#91,'mechanical');
#90=APPLICATION_PROTOCOL_DEFINITION('international standard',
'config_control_design',2010,#91);
#91=APPLICATION_CONTEXT(
'configuration controlled 3D designs of mechanical parts and assemblie
s');
#92=SHAPE_REPRESENTATION('n 02 100 6122 002nxm001-03-None',(#240),#365);
#93=MANIFOLD_SOLID_BREP('',#94);
#94=CLOSED_SHELL('',(#104,#105,#106,#107,#108,#109,#110,#111,#112,#113,
#114,#115,#116,#117));
#95=CONICAL_SURFACE('',#253,0.8,45.);
#96=FACE_OUTER_BOUND('',#157,.T.);
#97=FACE_OUTER_BOUND('',#174,.T.);
#98=CYLINDRICAL_SURFACE('',#246,4.6);
#99=CYLINDRICAL_SURFACE('',#248,2.);
#100=CYLINDRICAL_SURFACE('',#254,1.80000000000026);
#101=CYLINDRICAL_SURFACE('',#258,8.00000000000486);
#102=CYLINDRICAL_SURFACE('',#261,8.25);
#103=CYLINDRICAL_SURFACE('',#265,9.5);
#104=ADVANCED_FACE('',(#125,#126),#118,.T.);
#105=ADVANCED_FACE('',(#127,#128),#98,.F.);
#106=ADVANCED_FACE('',(#129,#130),#99,.T.);
#107=ADVANCED_FACE('',(#131,#132),#119,.T.);
#108=ADVANCED_FACE('4-0-49',(#96),#120,.T.);
#109=ADVANCED_FACE('4-0-33',(#133,#134),#95,.T.);
#110=ADVANCED_FACE('4-0-17',(#135,#136),#100,.T.);
#111=ADVANCED_FACE('',(#137,#138),#121,.T.);
#112=ADVANCED_FACE('',(#139,#140),#101,.T.);
#113=ADVANCED_FACE('',(#141,#142),#102,.T.);
#114=ADVANCED_FACE('',(#143,#144),#122,.T.);
#115=ADVANCED_FACE('',(#145,#146),#103,.T.);
#116=ADVANCED_FACE('',(#147,#148),#123,.T.);
#117=ADVANCED_FACE('',(#97),#124,.F.);
#118=PLANE('',#243);
#119=PLANE('',#249);
#120=PLANE('',#251);
#121=PLANE('',#256);
#122=PLANE('',#263);
#123=PLANE('',#266);
#124=PLANE('',#267);
#125=FACE_BOUND('',#149,.T.);
#126=FACE_BOUND('',#150,.T.);
#127=FACE_BOUND('',#151,.T.);
#128=FACE_BOUND('',#152,.T.);
#129=FACE_BOUND('',#153,.T.);
#130=FACE_BOUND('',#154,.T.);
#131=FACE_BOUND('',#155,.T.);
#132=FACE_BOUND('',#156,.T.);
#133=FACE_BOUND('',#158,.T.);
#134=FACE_BOUND('',#159,.T.);
#135=FACE_BOUND('',#160,.T.);
#136=FACE_BOUND('',#161,.T.);
#137=FACE_BOUND('',#162,.T.);
#138=FACE_BOUND('',#163,.T.);
#139=FACE_BOUND('',#164,.T.);
#140=FACE_BOUND('',#165,.T.);
#141=FACE_BOUND('',#166,.T.);
#142=FACE_BOUND('',#167,.T.);
#143=FACE_BOUND('',#168,.T.);
#144=FACE_BOUND('',#169,.T.);
#145=FACE_BOUND('',#170,.T.);
#146=FACE_BOUND('',#171,.T.);
#147=FACE_BOUND('',#172,.T.);
#148=FACE_BOUND('',#173,.T.);
#149=EDGE_LOOP('',(#175));
#150=EDGE_LOOP('',(#176));
#151=EDGE_LOOP('',(#177));
#152=EDGE_LOOP('',(#178));
#153=EDGE_LOOP('',(#179));
#154=EDGE_LOOP('',(#180));
#155=EDGE_LOOP('',(#181));
#156=EDGE_LOOP('',(#182));
#157=EDGE_LOOP('',(#183));
#158=EDGE_LOOP('',(#184));
#159=EDGE_LOOP('',(#185));
#160=EDGE_LOOP('',(#186));
#161=EDGE_LOOP('',(#187));
#162=EDGE_LOOP('',(#188));
#163=EDGE_LOOP('',(#189));
#164=EDGE_LOOP('',(#190));
#165=EDGE_LOOP('',(#191));
#166=EDGE_LOOP('',(#192));
#167=EDGE_LOOP('',(#193));
#168=EDGE_LOOP('',(#194));
#169=EDGE_LOOP('',(#195));
#170=EDGE_LOOP('',(#196));
#171=EDGE_LOOP('',(#197));
#172=EDGE_LOOP('',(#198));
#173=EDGE_LOOP('',(#199));
#174=EDGE_LOOP('',(#200));
#175=ORIENTED_EDGE('',*,*,#214,.T.);
#176=ORIENTED_EDGE('',*,*,#215,.T.);
#177=ORIENTED_EDGE('',*,*,#216,.F.);
#178=ORIENTED_EDGE('',*,*,#217,.T.);
#179=ORIENTED_EDGE('',*,*,#215,.F.);
#180=ORIENTED_EDGE('',*,*,#218,.T.);
#181=ORIENTED_EDGE('',*,*,#218,.F.);
#182=ORIENTED_EDGE('',*,*,#216,.T.);
#183=ORIENTED_EDGE('',*,*,#219,.F.);
#184=ORIENTED_EDGE('',*,*,#220,.F.);
#185=ORIENTED_EDGE('',*,*,#219,.T.);
#186=ORIENTED_EDGE('',*,*,#214,.F.);
#187=ORIENTED_EDGE('',*,*,#220,.T.);
#188=ORIENTED_EDGE('',*,*,#221,.T.);
#189=ORIENTED_EDGE('',*,*,#217,.F.);
#190=ORIENTED_EDGE('',*,*,#222,.T.);
#191=ORIENTED_EDGE('',*,*,#221,.F.);
#192=ORIENTED_EDGE('',*,*,#223,.T.);
#193=ORIENTED_EDGE('',*,*,#224,.F.);
#194=ORIENTED_EDGE('',*,*,#223,.F.);
#195=ORIENTED_EDGE('',*,*,#225,.T.);
#196=ORIENTED_EDGE('',*,*,#226,.T.);
#197=ORIENTED_EDGE('',*,*,#225,.F.);
#198=ORIENTED_EDGE('',*,*,#222,.F.);
#199=ORIENTED_EDGE('',*,*,#226,.F.);
#200=ORIENTED_EDGE('',*,*,#224,.T.);
#201=VERTEX_POINT('',#326);
#202=VERTEX_POINT('',#328);
#203=VERTEX_POINT('',#331);
#204=VERTEX_POINT('',#333);
#205=VERTEX_POINT('',#336);
#206=VERTEX_POINT('',#340);
#207=VERTEX_POINT('',#343);
#208=VERTEX_POINT('',#347);
#209=VERTEX_POINT('',#350);
#210=VERTEX_POINT('',#353);
#211=VERTEX_POINT('',#355);
#212=VERTEX_POINT('',#358);
#213=VERTEX_POINT('',#361);
#214=EDGE_CURVE('',#201,#201,#227,.T.);
#215=EDGE_CURVE('',#202,#202,#228,.T.);
#216=EDGE_CURVE('',#203,#203,#229,.T.);
#217=EDGE_CURVE('',#204,#204,#230,.T.);
#218=EDGE_CURVE('',#205,#205,#231,.T.);
#219=EDGE_CURVE('',#206,#206,#232,.T.);
#220=EDGE_CURVE('',#207,#207,#233,.T.);
#221=EDGE_CURVE('',#208,#208,#234,.T.);
#222=EDGE_CURVE('',#209,#209,#235,.T.);
#223=EDGE_CURVE('',#210,#210,#236,.T.);
#224=EDGE_CURVE('',#211,#211,#237,.T.);
#225=EDGE_CURVE('',#212,#212,#238,.T.);
#226=EDGE_CURVE('',#213,#213,#239,.T.);
#227=CIRCLE('',#241,1.8);
#228=CIRCLE('',#242,2.);
#229=CIRCLE('',#244,4.6);
#230=CIRCLE('',#245,4.6);
#231=CIRCLE('',#247,2.);
#232=CIRCLE('',#250,0.8);
#233=CIRCLE('',#252,1.80000000000052);
#234=CIRCLE('',#255,8.00000000000486);
#235=CIRCLE('',#257,8.00000000000486);
#236=CIRCLE('',#259,8.25);
#237=CIRCLE('',#260,8.25);
#238=CIRCLE('',#262,9.5);
#239=CIRCLE('',#264,9.5);
#240=AXIS2_PLACEMENT_3D('',#324,#268,#269);
#241=AXIS2_PLACEMENT_3D('',#325,#270,#271);
#242=AXIS2_PLACEMENT_3D('',#327,#272,#273);
#243=AXIS2_PLACEMENT_3D('',#329,#274,#275);
#244=AXIS2_PLACEMENT_3D('',#330,#276,#277);
#245=AXIS2_PLACEMENT_3D('',#332,#278,#279);
#246=AXIS2_PLACEMENT_3D('',#334,#280,#281);
#247=AXIS2_PLACEMENT_3D('',#335,#282,#283);
#248=AXIS2_PLACEMENT_3D('',#337,#284,#285);
#249=AXIS2_PLACEMENT_3D('',#338,#286,#287);
#250=AXIS2_PLACEMENT_3D('',#339,#288,#289);
#251=AXIS2_PLACEMENT_3D('',#341,#290,#291);
#252=AXIS2_PLACEMENT_3D('',#342,#292,#293);
#253=AXIS2_PLACEMENT_3D('',#344,#294,#295);
#254=AXIS2_PLACEMENT_3D('',#345,#296,#297);
#255=AXIS2_PLACEMENT_3D('',#346,#298,#299);
#256=AXIS2_PLACEMENT_3D('',#348,#300,#301);
#257=AXIS2_PLACEMENT_3D('',#349,#302,#303);
#258=AXIS2_PLACEMENT_3D('',#351,#304,#305);
#259=AXIS2_PLACEMENT_3D('',#352,#306,#307);
#260=AXIS2_PLACEMENT_3D('',#354,#308,#309);
#261=AXIS2_PLACEMENT_3D('',#356,#310,#311);
#262=AXIS2_PLACEMENT_3D('',#357,#312,#313);
#263=AXIS2_PLACEMENT_3D('',#359,#314,#315);
#264=AXIS2_PLACEMENT_3D('',#360,#316,#317);
#265=AXIS2_PLACEMENT_3D('',#362,#318,#319);
#266=AXIS2_PLACEMENT_3D('',#363,#320,#321);
#267=AXIS2_PLACEMENT_3D('',#364,#322,#323);
#268=DIRECTION('',(0.,0.,1.));
#269=DIRECTION('',(1.,0.,0.));
#270=DIRECTION('',(0.,-1.,0.));
#271=DIRECTION('',(-0.54694413860391,0.,0.837169104331274));
#272=DIRECTION('',(0.,1.,6.14687582583613E-017));
#273=DIRECTION('',(0.,0.,1.));
#274=DIRECTION('',(0.,1.,6.14687582583613E-017));
#275=DIRECTION('',(0.,-6.07153216591882E-017,1.));
#276=DIRECTION('',(0.,1.,0.));
#277=DIRECTION('',(0.,0.,1.));
#278=DIRECTION('',(0.,1.,0.));
#279=DIRECTION('',(1.,0.,6.12323399573677E-017));
#280=DIRECTION('',(0.,1.,0.));
#281=DIRECTION('',(0.,0.,1.));
#282=DIRECTION('',(0.,1.,6.14687582583613E-017));
#283=DIRECTION('',(0.,0.,1.));
#284=DIRECTION('',(0.,1.,6.14687582583613E-017));
#285=DIRECTION('',(0.,0.,1.));
#286=DIRECTION('',(0.,1.,0.));
#287=DIRECTION('',(0.,0.,1.));
#288=DIRECTION('',(-1.4080441564299E-013,-1.,2.15519462061729E-013));
#289=DIRECTION('',(-0.54694413860391,2.55871712706579E-013,0.837169104331274));
#290=DIRECTION('',(0.,1.,0.));
#291=DIRECTION('',(-0.837169104331274,0.,-0.54694413860391));
#292=DIRECTION('',(-1.40949700158824E-013,-1.,2.15741838899525E-013));
#293=DIRECTION('',(-0.54694413860391,2.58281050867584E-013,0.837169104331274));
#294=DIRECTION('',(-1.41234118747124E-013,-1.,2.15616502098789E-013));
#295=DIRECTION('',(-0.54694413860391,2.57771449846538E-013,0.837169104331274));
#296=DIRECTION('',(-1.40976385069893E-013,-1.,2.15782683624831E-013));
#297=DIRECTION('',(-0.54694413860391,2.5731731560319E-013,0.837169104331274));
#298=DIRECTION('',(0.,1.,0.));
#299=DIRECTION('',(0.,0.,1.));
#300=DIRECTION('',(0.,1.,0.));
#301=DIRECTION('',(0.,0.,1.));
#302=DIRECTION('',(0.,1.,0.));
#303=DIRECTION('',(0.,0.,1.));
#304=DIRECTION('',(-2.73891016095306E-016,-1.,-1.38500876325493E-016));
#305=DIRECTION('',(1.,-2.16840434496969E-016,0.));
#306=DIRECTION('',(0.,-1.,0.));
#307=DIRECTION('',(0.,0.,-1.));
#308=DIRECTION('',(0.,-1.,0.));
#309=DIRECTION('',(0.,0.,1.));
#310=DIRECTION('',(0.,1.,0.));
#311=DIRECTION('',(0.,0.,1.));
#312=DIRECTION('',(0.,-1.,0.));
#313=DIRECTION('',(0.,0.,1.));
#314=DIRECTION('',(0.,-1.,0.));
#315=DIRECTION('',(0.,0.,-1.));
#316=DIRECTION('',(0.,-1.,0.));
#317=DIRECTION('',(0.,0.,1.));
#318=DIRECTION('',(0.,1.,0.));
#319=DIRECTION('',(0.,0.,1.));
#320=DIRECTION('',(0.,1.,0.));
#321=DIRECTION('',(0.,0.,1.));
#322=DIRECTION('',(0.,1.,0.));
#323=DIRECTION('',(0.,0.,1.));
#324=CARTESIAN_POINT('',(0.,0.,0.));
#325=CARTESIAN_POINT('',(7.04832372659019E-012,12.7000000000004,-1.07878196437048E-011));
#326=CARTESIAN_POINT('',(-0.984499449479989,12.7000000000004,1.5069043877855));
#327=CARTESIAN_POINT('',(0.,12.7,1.45680957072316E-015));
#328=CARTESIAN_POINT('',(0.,12.7,2.));
#329=CARTESIAN_POINT('',(0.,12.7,1.));
#330=CARTESIAN_POINT('',(0.,-11.,0.));
#331=CARTESIAN_POINT('',(0.,-11.,4.6));
#332=CARTESIAN_POINT('',(0.,14.9,0.));
#333=CARTESIAN_POINT('',(4.6,14.9,2.81668763803891E-016));
#334=CARTESIAN_POINT('',(0.,-14.,0.));
#335=CARTESIAN_POINT('',(0.,-11.,7.55681648364974E-033));
#336=CARTESIAN_POINT('',(0.,-11.,2.));
#337=CARTESIAN_POINT('',(0.,-11.,0.));
#338=CARTESIAN_POINT('',(0.,-11.,1.9));
#339=CARTESIAN_POINT('',(7.47096444281751E-012,15.7000000000002,-1.14349611393549E-011));
#340=CARTESIAN_POINT('',(-0.437555310875657,15.7000000000004,0.669735283453584));
#341=CARTESIAN_POINT('',(1.21801965379043,15.7000000000003,-0.255397969851516));
#342=CARTESIAN_POINT('',(7.3300705294705E-012,14.6999999999997,-1.12199469515464E-011));
#343=CARTESIAN_POINT('',(-0.984499449479989,14.7000000000001,1.5069043877855));
#344=CARTESIAN_POINT('',(7.47138793374722E-012,15.7000000000002,-1.14351615055154E-011));
#345=CARTESIAN_POINT('',(7.33077202363331E-012,14.6999999999997,-1.12206995484918E-011));
#346=CARTESIAN_POINT('',(7.94283946676387E-015,14.9,4.01652541343931E-015));
#347=CARTESIAN_POINT('',(7.94283946676387E-015,14.9,8.00000000000486));
#348=CARTESIAN_POINT('',(-8.46999999825097,14.9,-8.46999999825098));
#349=CARTESIAN_POINT('',(3.86186332694381E-015,0.,1.95286235618946E-015));
#350=CARTESIAN_POINT('',(3.86186332694381E-015,0.,8.00000000000486));
#351=CARTESIAN_POINT('',(7.86067216193528E-015,14.6,3.97497515054166E-015));
#352=CARTESIAN_POINT('',(0.,-14.1,0.));
#353=CARTESIAN_POINT('',(0.,-14.1,-8.25));
#354=CARTESIAN_POINT('',(0.,-37.3,0.));
#355=CARTESIAN_POINT('',(0.,-37.3,8.25));
#356=CARTESIAN_POINT('',(0.,0.,0.));
#357=CARTESIAN_POINT('',(0.,-14.1,0.));
#358=CARTESIAN_POINT('',(0.,-14.1,9.5));
#359=CARTESIAN_POINT('',(0.,-14.1,9.5));
#360=CARTESIAN_POINT('',(0.,0.,0.));
#361=CARTESIAN_POINT('',(0.,0.,9.5));
#362=CARTESIAN_POINT('',(0.,0.,0.));
#363=CARTESIAN_POINT('',(0.,0.,8.075));
#364=CARTESIAN_POINT('',(-1.06303854607859E-014,-37.3000000000001,4.54000000000004));
#365=(
GEOMETRIC_REPRESENTATION_CONTEXT(3)
GLOBAL_UNCERTAINTY_ASSIGNED_CONTEXT((#366))
GLOBAL_UNIT_ASSIGNED_CONTEXT((#372,#368,#367))
REPRESENTATION_CONTEXT('n 02 100 6122 002','TOP_LEVEL_ASSEMBLY_PART')
);
#366=UNCERTAINTY_MEASURE_WITH_UNIT(LENGTH_MEASURE(2.E-005),#372,
'DISTANCE_ACCURACY_VALUE','Maximum Tolerance applied to model');
#367=(
NAMED_UNIT(*)
SI_UNIT($,.STERADIAN.)
SOLID_ANGLE_UNIT()
);
#368=(
CONVERSION_BASED_UNIT('DEGREE',#370)
NAMED_UNIT(#369)
PLANE_ANGLE_UNIT()
);
#369=DIMENSIONAL_EXPONENTS(0.,0.,0.,0.,0.,0.,0.);
#370=PLANE_ANGLE_MEASURE_WITH_UNIT(PLANE_ANGLE_MEASURE(0.0174532925),#371);
#371=(
NAMED_UNIT(*)
PLANE_ANGLE_UNIT()
SI_UNIT($,.RADIAN.)
);
#372=(
LENGTH_UNIT()
NAMED_UNIT(*)
SI_UNIT(.MILLI.,.METRE.)
);
ENDSEC;
END-ISO-10303-21;
