ISO-10303-21;
HEADER;
/* Generated by software containing ST-Developer
 * from STEP Tools, Inc. (www.steptools.com) 
 */
/* OPTION: using custom schema-name function */

FILE_DESCRIPTION(
/* description */ (''),
/* implementation_level */ '2;1');

FILE_NAME(
/* name */ 'n 02 100 6123 002.stp',
/* time_stamp */ '2017-09-13T10:41:08+02:00',
/* author */ (''),
/* organization */ (''),
/* preprocessor_version */ 'ST-DEVELOPER v15',
/* originating_system */ 'SIEMENS PLM Software NX 9.0',
/* authorisation */ '');

FILE_SCHEMA (('CONFIG_CONTROL_DESIGN'));
ENDSEC;

DATA;
#10=SHAPE_REPRESENTATION_RELATIONSHIP('None',
'relationship between n 02 100 6123 002nxm001-04-None and n 02 100 612
3 002nxm001-04-None',#92,#11);
#11=ADVANCED_BREP_SHAPE_REPRESENTATION(
'n 02 100 6123 002nxm001-04-None',(#93),#405);
#12=CC_DESIGN_APPROVAL(#24,(#82));
#13=CC_DESIGN_APPROVAL(#25,(#84));
#14=CC_DESIGN_APPROVAL(#26,(#31));
#15=APPROVAL_PERSON_ORGANIZATION(#69,#24,#18);
#16=APPROVAL_PERSON_ORGANIZATION(#70,#25,#19);
#17=APPROVAL_PERSON_ORGANIZATION(#71,#26,#20);
#18=APPROVAL_ROLE('approver');
#19=APPROVAL_ROLE('approver');
#20=APPROVAL_ROLE('approver');
#21=APPROVAL_DATE_TIME(#39,#24);
#22=APPROVAL_DATE_TIME(#40,#25);
#23=APPROVAL_DATE_TIME(#41,#26);
#24=APPROVAL(#27,' ');
#25=APPROVAL(#28,' ');
#26=APPROVAL(#29,' ');
#27=APPROVAL_STATUS('not_yet_approved');
#28=APPROVAL_STATUS('not_yet_approved');
#29=APPROVAL_STATUS('not_yet_approved');
#30=CC_DESIGN_SECURITY_CLASSIFICATION(#31,(#84));
#31=SECURITY_CLASSIFICATION(' ',' ',#32);
#32=SECURITY_CLASSIFICATION_LEVEL('confidential');
#33=CC_DESIGN_DATE_AND_TIME_ASSIGNMENT(#37,#35,(#82));
#34=CC_DESIGN_DATE_AND_TIME_ASSIGNMENT(#38,#36,(#31));
#35=DATE_TIME_ROLE('creation_date');
#36=DATE_TIME_ROLE('classification_date');
#37=DATE_AND_TIME(#52,#42);
#38=DATE_AND_TIME(#53,#43);
#39=DATE_AND_TIME(#54,#44);
#40=DATE_AND_TIME(#55,#45);
#41=DATE_AND_TIME(#56,#46);
#42=LOCAL_TIME(0,0,0.,#47);
#43=LOCAL_TIME(0,0,0.,#48);
#44=LOCAL_TIME(0,0,0.,#49);
#45=LOCAL_TIME(0,0,0.,#50);
#46=LOCAL_TIME(0,0,0.,#51);
#47=COORDINATED_UNIVERSAL_TIME_OFFSET(0,0,.BEHIND.);
#48=COORDINATED_UNIVERSAL_TIME_OFFSET(0,0,.BEHIND.);
#49=COORDINATED_UNIVERSAL_TIME_OFFSET(0,0,.BEHIND.);
#50=COORDINATED_UNIVERSAL_TIME_OFFSET(0,0,.BEHIND.);
#51=COORDINATED_UNIVERSAL_TIME_OFFSET(0,0,.BEHIND.);
#52=CALENDAR_DATE(0,1,1);
#53=CALENDAR_DATE(0,1,1);
#54=CALENDAR_DATE(0,1,1);
#55=CALENDAR_DATE(0,1,1);
#56=CALENDAR_DATE(0,1,1);
#57=CC_DESIGN_PERSON_AND_ORGANIZATION_ASSIGNMENT(#65,#61,(#82,#84));
#58=CC_DESIGN_PERSON_AND_ORGANIZATION_ASSIGNMENT(#66,#62,(#86));
#59=CC_DESIGN_PERSON_AND_ORGANIZATION_ASSIGNMENT(#67,#63,(#84));
#60=CC_DESIGN_PERSON_AND_ORGANIZATION_ASSIGNMENT(#68,#64,(#31));
#61=PERSON_AND_ORGANIZATION_ROLE('creator');
#62=PERSON_AND_ORGANIZATION_ROLE('design_owner');
#63=PERSON_AND_ORGANIZATION_ROLE('design_supplier');
#64=PERSON_AND_ORGANIZATION_ROLE('classification_officer');
#65=PERSON_AND_ORGANIZATION(#79,#72);
#66=PERSON_AND_ORGANIZATION(#79,#73);
#67=PERSON_AND_ORGANIZATION(#79,#74);
#68=PERSON_AND_ORGANIZATION(#79,#75);
#69=PERSON_AND_ORGANIZATION(#79,#76);
#70=PERSON_AND_ORGANIZATION(#79,#77);
#71=PERSON_AND_ORGANIZATION(#79,#78);
#72=ORGANIZATION(' ',' ',' ');
#73=ORGANIZATION(' ',' ',' ');
#74=ORGANIZATION(' ',' ',' ');
#75=ORGANIZATION(' ',' ',' ');
#76=ORGANIZATION(' ',' ',' ');
#77=ORGANIZATION(' ',' ',' ');
#78=ORGANIZATION(' ',' ',' ');
#79=PERSON(' ',' ',' ',(' '),$,$);
#80=SHAPE_DEFINITION_REPRESENTATION(#81,#92);
#81=PRODUCT_DEFINITION_SHAPE('','',#82);
#82=PRODUCT_DEFINITION(' ','',#84,#83);
#83=DESIGN_CONTEXT('',#91,'design');
#84=PRODUCT_DEFINITION_FORMATION_WITH_SPECIFIED_SOURCE(' ',' ',#86,
 .NOT_KNOWN.);
#85=PRODUCT_RELATED_PRODUCT_CATEGORY('detail','',(#86));
#86=PRODUCT('n 02 100 6123 002nxm001-04','n 02 100 6123 002nxm001-04',
' ',(#89));
#87=PRODUCT_CATEGORY('part',' ');
#88=PRODUCT_CATEGORY(' ','');
#89=MECHANICAL_CONTEXT(' ',#91,'mechanical');
#90=APPLICATION_PROTOCOL_DEFINITION('international standard',
'config_control_design',2010,#91);
#91=APPLICATION_CONTEXT(
'configuration controlled 3D designs of mechanical parts and assemblie
s');
#92=SHAPE_REPRESENTATION('n 02 100 6123 002nxm001-04-None',(#262),#405);
#93=MANIFOLD_SOLID_BREP('',#94);
#94=CLOSED_SHELL('',(#106,#107,#108,#109,#110,#111,#112,#113,#114,#115,
#116,#117,#118,#119,#120,#121));
#95=CONICAL_SURFACE('',#275,0.8,45.);
#96=CONICAL_SURFACE('',#292,9.5,30.);
#97=FACE_OUTER_BOUND('',#165,.T.);
#98=FACE_OUTER_BOUND('',#186,.T.);
#99=CYLINDRICAL_SURFACE('',#268,4.6);
#100=CYLINDRICAL_SURFACE('',#270,2.);
#101=CYLINDRICAL_SURFACE('',#276,1.80000000000026);
#102=CYLINDRICAL_SURFACE('',#280,8.00000000000486);
#103=CYLINDRICAL_SURFACE('',#283,8.25);
#104=CYLINDRICAL_SURFACE('',#287,9.5);
#105=CYLINDRICAL_SURFACE('',#291,9.49999999999999);
#106=ADVANCED_FACE('',(#129,#130),#122,.T.);
#107=ADVANCED_FACE('',(#131,#132),#99,.F.);
#108=ADVANCED_FACE('',(#133,#134),#100,.T.);
#109=ADVANCED_FACE('',(#135,#136),#123,.T.);
#110=ADVANCED_FACE('4-0-49',(#97),#124,.T.);
#111=ADVANCED_FACE('4-0-33',(#137,#138),#95,.T.);
#112=ADVANCED_FACE('4-0-17',(#139,#140),#101,.T.);
#113=ADVANCED_FACE('',(#141,#142),#125,.T.);
#114=ADVANCED_FACE('',(#143,#144),#102,.T.);
#115=ADVANCED_FACE('',(#145,#146),#103,.T.);
#116=ADVANCED_FACE('',(#147,#148),#126,.T.);
#117=ADVANCED_FACE('',(#149,#150),#104,.T.);
#118=ADVANCED_FACE('',(#151,#152),#127,.T.);
#119=ADVANCED_FACE('',(#153,#154),#105,.T.);
#120=ADVANCED_FACE('',(#155,#156),#96,.T.);
#121=ADVANCED_FACE('',(#98),#128,.F.);
#122=PLANE('',#265);
#123=PLANE('',#271);
#124=PLANE('',#273);
#125=PLANE('',#278);
#126=PLANE('',#285);
#127=PLANE('',#288);
#128=PLANE('',#293);
#129=FACE_BOUND('',#157,.T.);
#130=FACE_BOUND('',#158,.T.);
#131=FACE_BOUND('',#159,.T.);
#132=FACE_BOUND('',#160,.T.);
#133=FACE_BOUND('',#161,.T.);
#134=FACE_BOUND('',#162,.T.);
#135=FACE_BOUND('',#163,.T.);
#136=FACE_BOUND('',#164,.T.);
#137=FACE_BOUND('',#166,.T.);
#138=FACE_BOUND('',#167,.T.);
#139=FACE_BOUND('',#168,.T.);
#140=FACE_BOUND('',#169,.T.);
#141=FACE_BOUND('',#170,.T.);
#142=FACE_BOUND('',#171,.T.);
#143=FACE_BOUND('',#172,.T.);
#144=FACE_BOUND('',#173,.T.);
#145=FACE_BOUND('',#174,.T.);
#146=FACE_BOUND('',#175,.T.);
#147=FACE_BOUND('',#176,.T.);
#148=FACE_BOUND('',#177,.T.);
#149=FACE_BOUND('',#178,.T.);
#150=FACE_BOUND('',#179,.T.);
#151=FACE_BOUND('',#180,.T.);
#152=FACE_BOUND('',#181,.T.);
#153=FACE_BOUND('',#182,.T.);
#154=FACE_BOUND('',#183,.T.);
#155=FACE_BOUND('',#184,.T.);
#156=FACE_BOUND('',#185,.T.);
#157=EDGE_LOOP('',(#187));
#158=EDGE_LOOP('',(#188));
#159=EDGE_LOOP('',(#189));
#160=EDGE_LOOP('',(#190));
#161=EDGE_LOOP('',(#191));
#162=EDGE_LOOP('',(#192));
#163=EDGE_LOOP('',(#193));
#164=EDGE_LOOP('',(#194));
#165=EDGE_LOOP('',(#195));
#166=EDGE_LOOP('',(#196));
#167=EDGE_LOOP('',(#197));
#168=EDGE_LOOP('',(#198));
#169=EDGE_LOOP('',(#199));
#170=EDGE_LOOP('',(#200));
#171=EDGE_LOOP('',(#201));
#172=EDGE_LOOP('',(#202));
#173=EDGE_LOOP('',(#203));
#174=EDGE_LOOP('',(#204));
#175=EDGE_LOOP('',(#205));
#176=EDGE_LOOP('',(#206));
#177=EDGE_LOOP('',(#207));
#178=EDGE_LOOP('',(#208));
#179=EDGE_LOOP('',(#209));
#180=EDGE_LOOP('',(#210));
#181=EDGE_LOOP('',(#211));
#182=EDGE_LOOP('',(#212));
#183=EDGE_LOOP('',(#213));
#184=EDGE_LOOP('',(#214));
#185=EDGE_LOOP('',(#215));
#186=EDGE_LOOP('',(#216));
#187=ORIENTED_EDGE('',*,*,#232,.T.);
#188=ORIENTED_EDGE('',*,*,#233,.T.);
#189=ORIENTED_EDGE('',*,*,#234,.F.);
#190=ORIENTED_EDGE('',*,*,#235,.T.);
#191=ORIENTED_EDGE('',*,*,#233,.F.);
#192=ORIENTED_EDGE('',*,*,#236,.T.);
#193=ORIENTED_EDGE('',*,*,#236,.F.);
#194=ORIENTED_EDGE('',*,*,#234,.T.);
#195=ORIENTED_EDGE('',*,*,#237,.F.);
#196=ORIENTED_EDGE('',*,*,#238,.F.);
#197=ORIENTED_EDGE('',*,*,#237,.T.);
#198=ORIENTED_EDGE('',*,*,#232,.F.);
#199=ORIENTED_EDGE('',*,*,#238,.T.);
#200=ORIENTED_EDGE('',*,*,#239,.T.);
#201=ORIENTED_EDGE('',*,*,#235,.F.);
#202=ORIENTED_EDGE('',*,*,#240,.T.);
#203=ORIENTED_EDGE('',*,*,#239,.F.);
#204=ORIENTED_EDGE('',*,*,#241,.F.);
#205=ORIENTED_EDGE('',*,*,#242,.T.);
#206=ORIENTED_EDGE('',*,*,#241,.T.);
#207=ORIENTED_EDGE('',*,*,#243,.T.);
#208=ORIENTED_EDGE('',*,*,#244,.T.);
#209=ORIENTED_EDGE('',*,*,#243,.F.);
#210=ORIENTED_EDGE('',*,*,#240,.F.);
#211=ORIENTED_EDGE('',*,*,#244,.F.);
#212=ORIENTED_EDGE('',*,*,#245,.T.);
#213=ORIENTED_EDGE('',*,*,#246,.F.);
#214=ORIENTED_EDGE('',*,*,#242,.F.);
#215=ORIENTED_EDGE('',*,*,#246,.T.);
#216=ORIENTED_EDGE('',*,*,#245,.F.);
#217=VERTEX_POINT('',#360);
#218=VERTEX_POINT('',#362);
#219=VERTEX_POINT('',#365);
#220=VERTEX_POINT('',#367);
#221=VERTEX_POINT('',#370);
#222=VERTEX_POINT('',#374);
#223=VERTEX_POINT('',#377);
#224=VERTEX_POINT('',#381);
#225=VERTEX_POINT('',#384);
#226=VERTEX_POINT('',#387);
#227=VERTEX_POINT('',#389);
#228=VERTEX_POINT('',#392);
#229=VERTEX_POINT('',#395);
#230=VERTEX_POINT('',#399);
#231=VERTEX_POINT('',#401);
#232=EDGE_CURVE('',#217,#217,#247,.T.);
#233=EDGE_CURVE('',#218,#218,#248,.T.);
#234=EDGE_CURVE('',#219,#219,#249,.T.);
#235=EDGE_CURVE('',#220,#220,#250,.T.);
#236=EDGE_CURVE('',#221,#221,#251,.T.);
#237=EDGE_CURVE('',#222,#222,#252,.T.);
#238=EDGE_CURVE('',#223,#223,#253,.T.);
#239=EDGE_CURVE('',#224,#224,#254,.T.);
#240=EDGE_CURVE('',#225,#225,#255,.T.);
#241=EDGE_CURVE('',#226,#226,#256,.T.);
#242=EDGE_CURVE('',#227,#227,#257,.T.);
#243=EDGE_CURVE('',#228,#228,#258,.T.);
#244=EDGE_CURVE('',#229,#229,#259,.T.);
#245=EDGE_CURVE('',#230,#230,#260,.T.);
#246=EDGE_CURVE('',#231,#231,#261,.T.);
#247=CIRCLE('',#263,1.8);
#248=CIRCLE('',#264,2.);
#249=CIRCLE('',#266,4.6);
#250=CIRCLE('',#267,4.6);
#251=CIRCLE('',#269,2.);
#252=CIRCLE('',#272,0.8);
#253=CIRCLE('',#274,1.80000000000052);
#254=CIRCLE('',#277,8.00000000000486);
#255=CIRCLE('',#279,8.00000000000486);
#256=CIRCLE('',#281,8.25);
#257=CIRCLE('',#282,8.25);
#258=CIRCLE('',#284,9.5);
#259=CIRCLE('',#286,9.5);
#260=CIRCLE('',#289,9.49999999999999);
#261=CIRCLE('',#290,9.5);
#262=AXIS2_PLACEMENT_3D('',#358,#294,#295);
#263=AXIS2_PLACEMENT_3D('',#359,#296,#297);
#264=AXIS2_PLACEMENT_3D('',#361,#298,#299);
#265=AXIS2_PLACEMENT_3D('',#363,#300,#301);
#266=AXIS2_PLACEMENT_3D('',#364,#302,#303);
#267=AXIS2_PLACEMENT_3D('',#366,#304,#305);
#268=AXIS2_PLACEMENT_3D('',#368,#306,#307);
#269=AXIS2_PLACEMENT_3D('',#369,#308,#309);
#270=AXIS2_PLACEMENT_3D('',#371,#310,#311);
#271=AXIS2_PLACEMENT_3D('',#372,#312,#313);
#272=AXIS2_PLACEMENT_3D('',#373,#314,#315);
#273=AXIS2_PLACEMENT_3D('',#375,#316,#317);
#274=AXIS2_PLACEMENT_3D('',#376,#318,#319);
#275=AXIS2_PLACEMENT_3D('',#378,#320,#321);
#276=AXIS2_PLACEMENT_3D('',#379,#322,#323);
#277=AXIS2_PLACEMENT_3D('',#380,#324,#325);
#278=AXIS2_PLACEMENT_3D('',#382,#326,#327);
#279=AXIS2_PLACEMENT_3D('',#383,#328,#329);
#280=AXIS2_PLACEMENT_3D('',#385,#330,#331);
#281=AXIS2_PLACEMENT_3D('',#386,#332,#333);
#282=AXIS2_PLACEMENT_3D('',#388,#334,#335);
#283=AXIS2_PLACEMENT_3D('',#390,#336,#337);
#284=AXIS2_PLACEMENT_3D('',#391,#338,#339);
#285=AXIS2_PLACEMENT_3D('',#393,#340,#341);
#286=AXIS2_PLACEMENT_3D('',#394,#342,#343);
#287=AXIS2_PLACEMENT_3D('',#396,#344,#345);
#288=AXIS2_PLACEMENT_3D('',#397,#346,#347);
#289=AXIS2_PLACEMENT_3D('',#398,#348,#349);
#290=AXIS2_PLACEMENT_3D('',#400,#350,#351);
#291=AXIS2_PLACEMENT_3D('',#402,#352,#353);
#292=AXIS2_PLACEMENT_3D('',#403,#354,#355);
#293=AXIS2_PLACEMENT_3D('',#404,#356,#357);
#294=DIRECTION('',(0.,0.,1.));
#295=DIRECTION('',(1.,0.,0.));
#296=DIRECTION('',(0.,-1.,0.));
#297=DIRECTION('',(-0.54694413860391,0.,0.837169104331274));
#298=DIRECTION('',(0.,1.,6.14687582583613E-017));
#299=DIRECTION('',(0.,0.,1.));
#300=DIRECTION('',(0.,1.,6.14687582583613E-017));
#301=DIRECTION('',(0.,-6.07153216591882E-017,1.));
#302=DIRECTION('',(0.,1.,0.));
#303=DIRECTION('',(0.,0.,1.));
#304=DIRECTION('',(0.,1.,0.));
#305=DIRECTION('',(1.,0.,6.12323399573677E-017));
#306=DIRECTION('',(0.,1.,0.));
#307=DIRECTION('',(0.,0.,1.));
#308=DIRECTION('',(0.,1.,6.14687582583613E-017));
#309=DIRECTION('',(0.,0.,1.));
#310=DIRECTION('',(0.,1.,6.14687582583613E-017));
#311=DIRECTION('',(0.,0.,1.));
#312=DIRECTION('',(0.,1.,0.));
#313=DIRECTION('',(0.,0.,1.));
#314=DIRECTION('',(-1.4080441564299E-013,-1.,2.15519462061729E-013));
#315=DIRECTION('',(-0.54694413860391,2.55871712706579E-013,0.837169104331274));
#316=DIRECTION('',(0.,1.,0.));
#317=DIRECTION('',(-0.837169104331274,0.,-0.54694413860391));
#318=DIRECTION('',(-1.40949700158824E-013,-1.,2.15741838899525E-013));
#319=DIRECTION('',(-0.54694413860391,2.58281050867584E-013,0.837169104331274));
#320=DIRECTION('',(-1.41234118747124E-013,-1.,2.15616502098789E-013));
#321=DIRECTION('',(-0.54694413860391,2.57771449846538E-013,0.837169104331274));
#322=DIRECTION('',(-1.40976385069893E-013,-1.,2.15782683624831E-013));
#323=DIRECTION('',(-0.54694413860391,2.5731731560319E-013,0.837169104331274));
#324=DIRECTION('',(0.,1.,0.));
#325=DIRECTION('',(0.,0.,1.));
#326=DIRECTION('',(0.,1.,0.));
#327=DIRECTION('',(0.,0.,1.));
#328=DIRECTION('',(0.,1.,0.));
#329=DIRECTION('',(0.,0.,1.));
#330=DIRECTION('',(-2.73891016095306E-016,-1.,-1.38500876325493E-016));
#331=DIRECTION('',(1.,-2.16840434496969E-016,0.));
#332=DIRECTION('',(0.,1.,0.));
#333=DIRECTION('',(0.,0.,-1.));
#334=DIRECTION('',(0.,1.,0.));
#335=DIRECTION('',(0.,0.,1.));
#336=DIRECTION('',(0.,1.,0.));
#337=DIRECTION('',(0.,0.,1.));
#338=DIRECTION('',(0.,-1.,0.));
#339=DIRECTION('',(0.,0.,1.));
#340=DIRECTION('',(0.,-1.,0.));
#341=DIRECTION('',(0.,0.,-1.));
#342=DIRECTION('',(0.,-1.,0.));
#343=DIRECTION('',(0.,0.,1.));
#344=DIRECTION('',(0.,1.,0.));
#345=DIRECTION('',(0.,0.,1.));
#346=DIRECTION('',(0.,1.,0.));
#347=DIRECTION('',(0.,0.,1.));
#348=DIRECTION('',(0.,1.,0.));
#349=DIRECTION('',(0.,0.,1.));
#350=DIRECTION('',(0.,1.,0.));
#351=DIRECTION('',(0.,0.,1.));
#352=DIRECTION('',(0.,1.,0.));
#353=DIRECTION('',(0.,0.,1.));
#354=DIRECTION('',(0.,-1.,0.));
#355=DIRECTION('',(0.,-1.24151576332469E-016,-1.));
#356=DIRECTION('',(0.,1.,0.));
#357=DIRECTION('',(0.,0.,1.));
#358=CARTESIAN_POINT('',(0.,0.,0.));
#359=CARTESIAN_POINT('',(7.04832372659019E-012,12.7000000000004,-1.07878196437048E-011));
#360=CARTESIAN_POINT('',(-0.984499449479989,12.7000000000004,1.5069043877855));
#361=CARTESIAN_POINT('',(0.,12.7,1.45680957072316E-015));
#362=CARTESIAN_POINT('',(0.,12.7,2.));
#363=CARTESIAN_POINT('',(0.,12.7,1.));
#364=CARTESIAN_POINT('',(0.,-11.,0.));
#365=CARTESIAN_POINT('',(0.,-11.,4.6));
#366=CARTESIAN_POINT('',(0.,14.9,0.));
#367=CARTESIAN_POINT('',(4.6,14.9,2.81668763803891E-016));
#368=CARTESIAN_POINT('',(0.,-14.,0.));
#369=CARTESIAN_POINT('',(0.,-11.,7.55681648364974E-033));
#370=CARTESIAN_POINT('',(0.,-11.,2.));
#371=CARTESIAN_POINT('',(0.,-11.,0.));
#372=CARTESIAN_POINT('',(0.,-11.,1.9));
#373=CARTESIAN_POINT('',(7.47096444281751E-012,15.7000000000002,-1.14349611393549E-011));
#374=CARTESIAN_POINT('',(-0.437555310875657,15.7000000000004,0.669735283453584));
#375=CARTESIAN_POINT('',(1.21801965379043,15.7000000000003,-0.255397969851516));
#376=CARTESIAN_POINT('',(7.3300705294705E-012,14.6999999999997,-1.12199469515464E-011));
#377=CARTESIAN_POINT('',(-0.984499449479989,14.7000000000001,1.5069043877855));
#378=CARTESIAN_POINT('',(7.47138793374722E-012,15.7000000000002,-1.14351615055154E-011));
#379=CARTESIAN_POINT('',(7.33077202363331E-012,14.6999999999997,-1.12206995484918E-011));
#380=CARTESIAN_POINT('',(7.94283946676387E-015,14.9,4.01652541343931E-015));
#381=CARTESIAN_POINT('',(7.94283946676387E-015,14.9,8.00000000000486));
#382=CARTESIAN_POINT('',(-8.46999999825097,14.9,-8.46999999825098));
#383=CARTESIAN_POINT('',(3.86186332694381E-015,0.,1.95286235618946E-015));
#384=CARTESIAN_POINT('',(3.86186332694381E-015,0.,8.00000000000486));
#385=CARTESIAN_POINT('',(7.86067216193528E-015,14.6,3.97497515054166E-015));
#386=CARTESIAN_POINT('',(0.,-14.1,0.));
#387=CARTESIAN_POINT('',(0.,-14.1,-8.25));
#388=CARTESIAN_POINT('',(0.,-16.6,0.));
#389=CARTESIAN_POINT('',(0.,-16.6,8.25));
#390=CARTESIAN_POINT('',(0.,0.,0.));
#391=CARTESIAN_POINT('',(0.,-14.1,0.));
#392=CARTESIAN_POINT('',(0.,-14.1,9.5));
#393=CARTESIAN_POINT('',(0.,-14.1,9.5));
#394=CARTESIAN_POINT('',(0.,0.,0.));
#395=CARTESIAN_POINT('',(0.,0.,9.5));
#396=CARTESIAN_POINT('',(0.,0.,0.));
#397=CARTESIAN_POINT('',(0.,0.,8.075));
#398=CARTESIAN_POINT('',(0.,-37.3,0.));
#399=CARTESIAN_POINT('',(0.,-37.3,9.49999999999999));
#400=CARTESIAN_POINT('',(0.,-18.7650635094611,0.));
#401=CARTESIAN_POINT('',(0.,-18.7650635094611,9.5));
#402=CARTESIAN_POINT('',(0.,0.,0.));
#403=CARTESIAN_POINT('',(0.,-18.7650635094611,0.));
#404=CARTESIAN_POINT('',(-1.06303854607859E-014,-37.3000000000001,4.54000000000004));
#405=(
GEOMETRIC_REPRESENTATION_CONTEXT(3)
GLOBAL_UNCERTAINTY_ASSIGNED_CONTEXT((#406))
GLOBAL_UNIT_ASSIGNED_CONTEXT((#412,#408,#407))
REPRESENTATION_CONTEXT('n 02 100 6123 002','TOP_LEVEL_ASSEMBLY_PART')
);
#406=UNCERTAINTY_MEASURE_WITH_UNIT(LENGTH_MEASURE(2.E-005),#412,
'DISTANCE_ACCURACY_VALUE','Maximum Tolerance applied to model');
#407=(
NAMED_UNIT(*)
SI_UNIT($,.STERADIAN.)
SOLID_ANGLE_UNIT()
);
#408=(
CONVERSION_BASED_UNIT('DEGREE',#410)
NAMED_UNIT(#409)
PLANE_ANGLE_UNIT()
);
#409=DIMENSIONAL_EXPONENTS(0.,0.,0.,0.,0.,0.,0.);
#410=PLANE_ANGLE_MEASURE_WITH_UNIT(PLANE_ANGLE_MEASURE(0.0174532925),#411);
#411=(
NAMED_UNIT(*)
PLANE_ANGLE_UNIT()
SI_UNIT($,.RADIAN.)
);
#412=(
LENGTH_UNIT()
NAMED_UNIT(*)
SI_UNIT(.MILLI.,.METRE.)
);
ENDSEC;
END-ISO-10303-21;
