ISO-10303-21;
HEADER;
/* Generated by software containing ST-Developer
 * from STEP Tools, Inc. (www.steptools.com) 
 */
/* OPTION: using custom schema-name function */

FILE_DESCRIPTION(
/* description */ (''),
/* implementation_level */ '2;1');

FILE_NAME(
/* name */ 'n 02 025 00xx 1nxc001-02.stp',
/* time_stamp */ '2021-09-28T13:48:08+02:00',
/* author */ (''),
/* organization */ (''),
/* preprocessor_version */ 'ST-DEVELOPER v16.7',
/* originating_system */ 'SIEMENS PLM Software NX 12.0',
/* authorisation */ '');

FILE_SCHEMA (('AUTOMOTIVE_DESIGN { 1 0 10303 214 3 1 1 1 }'));
ENDSEC;

DATA;
#10=SHAPE_REPRESENTATION_RELATIONSHIP('None',
'relationship between n 02 025 00xx 1nxc001-02-None and n 02 025 00xx 
1nxc001-02-None',#22,#11);
#11=ADVANCED_BREP_SHAPE_REPRESENTATION('n 02 025 00xx 1nxc001-02-None',
(#40),#381);
#12=SHAPE_DEFINITION_REPRESENTATION(#13,#22);
#13=PRODUCT_DEFINITION_SHAPE('','',#14);
#14=PRODUCT_DEFINITION(' ','',#16,#15);
#15=PRODUCT_DEFINITION_CONTEXT('part definition',#21,'design');
#16=PRODUCT_DEFINITION_FORMATION_WITH_SPECIFIED_SOURCE(' ',' ',#18,
 .NOT_KNOWN.);
#17=PRODUCT_RELATED_PRODUCT_CATEGORY('part','',(#18));
#18=PRODUCT('n 02 025 00xx 1nxc001-02','n 02 025 00xx 1nxc001-02',' ',(#19));
#19=PRODUCT_CONTEXT(' ',#21,'mechanical');
#20=APPLICATION_PROTOCOL_DEFINITION('international standard',
'automotive_design',2010,#21);
#21=APPLICATION_CONTEXT(
'core data for automotive mechanical design processes');
#22=SHAPE_REPRESENTATION('n 02 025 00xx 1nxc001-02-None',(#226),#381);
#23=OVER_RIDING_STYLED_ITEM('',(#28),#60,#26);
#24=DRAUGHTING_PRE_DEFINED_COLOUR('cyan');
#25=PRESENTATION_LAYER_ASSIGNMENT('1','Layer 1',(#40));
#26=STYLED_ITEM('',(#27),#40);
#27=PRESENTATION_STYLE_ASSIGNMENT((#29));
#28=PRESENTATION_STYLE_ASSIGNMENT((#30));
#29=SURFACE_STYLE_USAGE(.BOTH.,#31);
#30=SURFACE_STYLE_USAGE(.BOTH.,#32);
#31=SURFACE_SIDE_STYLE('',(#33));
#32=SURFACE_SIDE_STYLE('',(#34));
#33=SURFACE_STYLE_FILL_AREA(#35);
#34=SURFACE_STYLE_FILL_AREA(#36);
#35=FILL_AREA_STYLE('',(#37));
#36=FILL_AREA_STYLE('',(#38));
#37=FILL_AREA_STYLE_COLOUR('',#39);
#38=FILL_AREA_STYLE_COLOUR('',#24);
#39=COLOUR_RGB('Deep Orange',1.,0.4,0.);
#40=MANIFOLD_SOLID_BREP('',#41);
#41=CLOSED_SHELL('',(#57,#58,#59,#60,#61,#62,#63,#64,#65,#66,#67,#68,#69,
#70,#71,#72,#73));
#42=CONICAL_SURFACE('',#240,8.94056015336375E-16,69.9999999999998);
#43=CONICAL_SURFACE('',#247,1.85,7.50000000000007);
#44=CONICAL_SURFACE('',#251,1.5,45.);
#45=CONICAL_SURFACE('',#255,2.05,44.9999999999999);
#46=CONICAL_SURFACE('',#258,0.874999999999999,65.);
#47=VERTEX_LOOP('',#184);
#48=VERTEX_LOOP('',#192);
#49=CYLINDRICAL_SURFACE('',#232,1.85);
#50=CYLINDRICAL_SURFACE('',#238,2.);
#51=CYLINDRICAL_SURFACE('',#242,1.25);
#52=CYLINDRICAL_SURFACE('',#246,1.85);
#53=CYLINDRICAL_SURFACE('',#249,2.05);
#54=CYLINDRICAL_SURFACE('',#253,1.5);
#55=CYLINDRICAL_SURFACE('',#256,2.05);
#56=CYLINDRICAL_SURFACE('',#259,0.95);
#57=ADVANCED_FACE('',(#78,#79),#74,.F.);
#58=ADVANCED_FACE('',(#80,#81),#49,.T.);
#59=ADVANCED_FACE('',(#82,#83),#75,.F.);
#60=ADVANCED_FACE('',(#84,#85),#76,.F.);
#61=ADVANCED_FACE('',(#86,#87),#50,.T.);
#62=ADVANCED_FACE('',(#88,#89),#42,.F.);
#63=ADVANCED_FACE('',(#90,#91),#51,.F.);
#64=ADVANCED_FACE('',(#92,#93),#77,.F.);
#65=ADVANCED_FACE('',(#94,#95),#52,.T.);
#66=ADVANCED_FACE('',(#96,#97),#43,.T.);
#67=ADVANCED_FACE('',(#98,#99),#53,.T.);
#68=ADVANCED_FACE('',(#100,#101),#44,.T.);
#69=ADVANCED_FACE('',(#102,#103),#54,.T.);
#70=ADVANCED_FACE('',(#104,#105),#45,.T.);
#71=ADVANCED_FACE('',(#106,#107),#55,.T.);
#72=ADVANCED_FACE('',(#108,#109),#46,.F.);
#73=ADVANCED_FACE('',(#110,#111),#56,.F.);
#74=PLANE('',#229);
#75=PLANE('',#234);
#76=PLANE('',#236);
#77=PLANE('',#244);
#78=FACE_BOUND('',#112,.T.);
#79=FACE_BOUND('',#113,.T.);
#80=FACE_BOUND('',#114,.T.);
#81=FACE_BOUND('',#115,.T.);
#82=FACE_BOUND('',#116,.T.);
#83=FACE_BOUND('',#117,.T.);
#84=FACE_BOUND('',#118,.T.);
#85=FACE_BOUND('',#119,.T.);
#86=FACE_BOUND('',#120,.T.);
#87=FACE_BOUND('',#121,.T.);
#88=FACE_BOUND('',#122,.T.);
#89=FACE_BOUND('',#47,.T.);
#90=FACE_BOUND('',#123,.T.);
#91=FACE_BOUND('',#124,.T.);
#92=FACE_BOUND('',#125,.T.);
#93=FACE_BOUND('',#126,.T.);
#94=FACE_BOUND('',#127,.T.);
#95=FACE_BOUND('',#128,.T.);
#96=FACE_BOUND('',#129,.T.);
#97=FACE_BOUND('',#130,.T.);
#98=FACE_BOUND('',#131,.T.);
#99=FACE_BOUND('',#132,.T.);
#100=FACE_BOUND('',#133,.T.);
#101=FACE_BOUND('',#134,.T.);
#102=FACE_BOUND('',#135,.T.);
#103=FACE_BOUND('',#136,.T.);
#104=FACE_BOUND('',#137,.T.);
#105=FACE_BOUND('',#138,.T.);
#106=FACE_BOUND('',#139,.T.);
#107=FACE_BOUND('',#140,.T.);
#108=FACE_BOUND('',#48,.T.);
#109=FACE_BOUND('',#141,.T.);
#110=FACE_BOUND('',#142,.T.);
#111=FACE_BOUND('',#143,.T.);
#112=EDGE_LOOP('',(#144));
#113=EDGE_LOOP('',(#145));
#114=EDGE_LOOP('',(#146));
#115=EDGE_LOOP('',(#147));
#116=EDGE_LOOP('',(#148));
#117=EDGE_LOOP('',(#149));
#118=EDGE_LOOP('',(#150));
#119=EDGE_LOOP('',(#151));
#120=EDGE_LOOP('',(#152));
#121=EDGE_LOOP('',(#153));
#122=EDGE_LOOP('',(#154));
#123=EDGE_LOOP('',(#155));
#124=EDGE_LOOP('',(#156));
#125=EDGE_LOOP('',(#157));
#126=EDGE_LOOP('',(#158));
#127=EDGE_LOOP('',(#159));
#128=EDGE_LOOP('',(#160));
#129=EDGE_LOOP('',(#161));
#130=EDGE_LOOP('',(#162));
#131=EDGE_LOOP('',(#163));
#132=EDGE_LOOP('',(#164));
#133=EDGE_LOOP('',(#165));
#134=EDGE_LOOP('',(#166));
#135=EDGE_LOOP('',(#167));
#136=EDGE_LOOP('',(#168));
#137=EDGE_LOOP('',(#169));
#138=EDGE_LOOP('',(#170));
#139=EDGE_LOOP('',(#171));
#140=EDGE_LOOP('',(#172));
#141=EDGE_LOOP('',(#173));
#142=EDGE_LOOP('',(#174));
#143=EDGE_LOOP('',(#175));
#144=ORIENTED_EDGE('',*,*,#194,.T.);
#145=ORIENTED_EDGE('',*,*,#195,.T.);
#146=ORIENTED_EDGE('',*,*,#196,.F.);
#147=ORIENTED_EDGE('',*,*,#197,.F.);
#148=ORIENTED_EDGE('',*,*,#198,.F.);
#149=ORIENTED_EDGE('',*,*,#196,.T.);
#150=ORIENTED_EDGE('',*,*,#197,.T.);
#151=ORIENTED_EDGE('',*,*,#199,.F.);
#152=ORIENTED_EDGE('',*,*,#200,.T.);
#153=ORIENTED_EDGE('',*,*,#199,.T.);
#154=ORIENTED_EDGE('',*,*,#201,.F.);
#155=ORIENTED_EDGE('',*,*,#202,.T.);
#156=ORIENTED_EDGE('',*,*,#201,.T.);
#157=ORIENTED_EDGE('',*,*,#202,.F.);
#158=ORIENTED_EDGE('',*,*,#203,.T.);
#159=ORIENTED_EDGE('',*,*,#204,.T.);
#160=ORIENTED_EDGE('',*,*,#203,.F.);
#161=ORIENTED_EDGE('',*,*,#200,.F.);
#162=ORIENTED_EDGE('',*,*,#204,.F.);
#163=ORIENTED_EDGE('',*,*,#194,.F.);
#164=ORIENTED_EDGE('',*,*,#205,.T.);
#165=ORIENTED_EDGE('',*,*,#205,.F.);
#166=ORIENTED_EDGE('',*,*,#206,.T.);
#167=ORIENTED_EDGE('',*,*,#206,.F.);
#168=ORIENTED_EDGE('',*,*,#207,.T.);
#169=ORIENTED_EDGE('',*,*,#207,.F.);
#170=ORIENTED_EDGE('',*,*,#208,.T.);
#171=ORIENTED_EDGE('',*,*,#208,.F.);
#172=ORIENTED_EDGE('',*,*,#198,.T.);
#173=ORIENTED_EDGE('',*,*,#209,.T.);
#174=ORIENTED_EDGE('',*,*,#209,.F.);
#175=ORIENTED_EDGE('',*,*,#195,.F.);
#176=VERTEX_POINT('',#330);
#177=VERTEX_POINT('',#332);
#178=VERTEX_POINT('',#335);
#179=VERTEX_POINT('',#337);
#180=VERTEX_POINT('',#340);
#181=VERTEX_POINT('',#343);
#182=VERTEX_POINT('',#346);
#183=VERTEX_POINT('',#349);
#184=VERTEX_POINT('',#350);
#185=VERTEX_POINT('',#353);
#186=VERTEX_POINT('',#356);
#187=VERTEX_POINT('',#359);
#188=VERTEX_POINT('',#363);
#189=VERTEX_POINT('',#366);
#190=VERTEX_POINT('',#369);
#191=VERTEX_POINT('',#372);
#192=VERTEX_POINT('',#375);
#193=VERTEX_POINT('',#377);
#194=EDGE_CURVE('',#176,#176,#210,.T.);
#195=EDGE_CURVE('',#177,#177,#211,.T.);
#196=EDGE_CURVE('',#178,#178,#212,.T.);
#197=EDGE_CURVE('',#179,#179,#213,.T.);
#198=EDGE_CURVE('',#180,#180,#214,.T.);
#199=EDGE_CURVE('',#181,#181,#215,.T.);
#200=EDGE_CURVE('',#182,#182,#216,.T.);
#201=EDGE_CURVE('',#183,#183,#217,.T.);
#202=EDGE_CURVE('',#185,#185,#218,.T.);
#203=EDGE_CURVE('',#186,#186,#219,.T.);
#204=EDGE_CURVE('',#187,#187,#220,.T.);
#205=EDGE_CURVE('',#188,#188,#221,.T.);
#206=EDGE_CURVE('',#189,#189,#222,.T.);
#207=EDGE_CURVE('',#190,#190,#223,.T.);
#208=EDGE_CURVE('',#191,#191,#224,.T.);
#209=EDGE_CURVE('',#193,#193,#225,.T.);
#210=CIRCLE('',#227,2.05);
#211=CIRCLE('',#228,0.95);
#212=CIRCLE('',#230,1.85);
#213=CIRCLE('',#231,1.85);
#214=CIRCLE('',#233,2.05);
#215=CIRCLE('',#235,2.);
#216=CIRCLE('',#237,2.);
#217=CIRCLE('',#239,1.25);
#218=CIRCLE('',#241,1.25);
#219=CIRCLE('',#243,1.85);
#220=CIRCLE('',#245,1.85);
#221=CIRCLE('',#248,2.05);
#222=CIRCLE('',#250,1.5);
#223=CIRCLE('',#252,1.5);
#224=CIRCLE('',#254,2.05);
#225=CIRCLE('',#257,0.95);
#226=AXIS2_PLACEMENT_3D('',#328,#260,#261);
#227=AXIS2_PLACEMENT_3D('',#329,#262,#263);
#228=AXIS2_PLACEMENT_3D('',#331,#264,#265);
#229=AXIS2_PLACEMENT_3D('',#333,#266,#267);
#230=AXIS2_PLACEMENT_3D('',#334,#268,#269);
#231=AXIS2_PLACEMENT_3D('',#336,#270,#271);
#232=AXIS2_PLACEMENT_3D('',#338,#272,#273);
#233=AXIS2_PLACEMENT_3D('',#339,#274,#275);
#234=AXIS2_PLACEMENT_3D('',#341,#276,#277);
#235=AXIS2_PLACEMENT_3D('',#342,#278,#279);
#236=AXIS2_PLACEMENT_3D('',#344,#280,#281);
#237=AXIS2_PLACEMENT_3D('',#345,#282,#283);
#238=AXIS2_PLACEMENT_3D('',#347,#284,#285);
#239=AXIS2_PLACEMENT_3D('',#348,#286,#287);
#240=AXIS2_PLACEMENT_3D('',#351,#288,#289);
#241=AXIS2_PLACEMENT_3D('',#352,#290,#291);
#242=AXIS2_PLACEMENT_3D('',#354,#292,#293);
#243=AXIS2_PLACEMENT_3D('',#355,#294,#295);
#244=AXIS2_PLACEMENT_3D('',#357,#296,#297);
#245=AXIS2_PLACEMENT_3D('',#358,#298,#299);
#246=AXIS2_PLACEMENT_3D('',#360,#300,#301);
#247=AXIS2_PLACEMENT_3D('',#361,#302,#303);
#248=AXIS2_PLACEMENT_3D('',#362,#304,#305);
#249=AXIS2_PLACEMENT_3D('',#364,#306,#307);
#250=AXIS2_PLACEMENT_3D('',#365,#308,#309);
#251=AXIS2_PLACEMENT_3D('',#367,#310,#311);
#252=AXIS2_PLACEMENT_3D('',#368,#312,#313);
#253=AXIS2_PLACEMENT_3D('',#370,#314,#315);
#254=AXIS2_PLACEMENT_3D('',#371,#316,#317);
#255=AXIS2_PLACEMENT_3D('',#373,#318,#319);
#256=AXIS2_PLACEMENT_3D('',#374,#320,#321);
#257=AXIS2_PLACEMENT_3D('',#376,#322,#323);
#258=AXIS2_PLACEMENT_3D('',#378,#324,#325);
#259=AXIS2_PLACEMENT_3D('',#379,#326,#327);
#260=DIRECTION('',(0.,0.,1.));
#261=DIRECTION('',(1.,0.,0.));
#262=DIRECTION('',(-1.45888810673884E-15,-1.,0.));
#263=DIRECTION('',(1.,-1.69241314729445E-15,0.));
#264=DIRECTION('',(1.45888810673884E-15,1.,0.));
#265=DIRECTION('',(-0.999999999999999,1.82602471155453E-15,0.));
#266=DIRECTION('',(1.45888810673884E-15,1.,0.));
#267=DIRECTION('',(-1.,1.45890244329649E-15,0.));
#268=DIRECTION('',(-1.45888810673884E-15,-1.,0.));
#269=DIRECTION('',(1.,-1.4065325480893E-15,0.));
#270=DIRECTION('',(0.,1.,0.));
#271=DIRECTION('',(0.,0.,1.));
#272=DIRECTION('',(-1.45888810673884E-15,-1.,0.));
#273=DIRECTION('',(1.,-1.87537673078574E-15,0.));
#274=DIRECTION('',(-1.45888810673884E-15,-1.,0.));
#275=DIRECTION('',(1.,-1.48086150388264E-15,0.));
#276=DIRECTION('',(-1.45888810673884E-15,-1.,0.));
#277=DIRECTION('',(1.,-1.45890244329649E-15,0.));
#278=DIRECTION('',(0.,1.,0.));
#279=DIRECTION('',(0.,0.,1.));
#280=DIRECTION('',(0.,1.,0.));
#281=DIRECTION('',(0.,0.,1.));
#282=DIRECTION('',(0.,-1.,0.));
#283=DIRECTION('',(0.,0.,1.));
#284=DIRECTION('',(0.,-1.,0.));
#285=DIRECTION('',(0.,0.,-1.));
#286=DIRECTION('',(-1.45888810673884E-15,-1.,0.));
#287=DIRECTION('',(-1.,1.38777878078145E-15,0.));
#288=DIRECTION('',(1.45888810673884E-15,1.,0.));
#289=DIRECTION('',(-1.,1.48676020997737E-15,0.));
#290=DIRECTION('',(1.45888810673884E-15,1.,0.));
#291=DIRECTION('',(1.,-1.38777878078145E-15,0.));
#292=DIRECTION('',(-1.45888810673884E-15,-1.,0.));
#293=DIRECTION('',(1.,-1.38777878078145E-15,0.));
#294=DIRECTION('',(1.45888810673884E-15,1.,0.));
#295=DIRECTION('',(1.,-1.87537673078574E-15,0.));
#296=DIRECTION('',(-1.45888810673884E-15,-1.,0.));
#297=DIRECTION('',(1.,-1.45890244329649E-15,0.));
#298=DIRECTION('',(0.,1.,0.));
#299=DIRECTION('',(0.,0.,1.));
#300=DIRECTION('',(-1.45888810673884E-15,-1.,0.));
#301=DIRECTION('',(1.,-1.87537673078574E-15,0.));
#302=DIRECTION('',(0.,-1.,0.));
#303=DIRECTION('',(0.,-9.74545518244616E-17,-1.));
#304=DIRECTION('',(-1.45888810673884E-15,-1.,0.));
#305=DIRECTION('',(0.999999999999999,-1.69241314729445E-15,0.));
#306=DIRECTION('',(-1.45888810673884E-15,-1.,0.));
#307=DIRECTION('',(0.999999999999999,-1.69241314729445E-15,0.));
#308=DIRECTION('',(-1.45888810673884E-15,-1.,0.));
#309=DIRECTION('',(1.,-1.15648231731787E-15,0.));
#310=DIRECTION('',(-1.45888810673884E-15,-1.,0.));
#311=DIRECTION('',(1.,-1.44286036494127E-15,0.));
#312=DIRECTION('',(-1.45888810673884E-15,-1.,0.));
#313=DIRECTION('',(1.,-1.73472347597681E-15,0.));
#314=DIRECTION('',(-1.45888810673884E-15,-1.,0.));
#315=DIRECTION('',(1.,-1.15648231731787E-15,0.));
#316=DIRECTION('',(-1.45888810673884E-15,-1.,0.));
#317=DIRECTION('',(1.,-1.26930986047084E-15,0.));
#318=DIRECTION('',(1.45888810673884E-15,1.,0.));
#319=DIRECTION('',(-1.,1.43774047881717E-15,0.));
#320=DIRECTION('',(-1.45888810673884E-15,-1.,0.));
#321=DIRECTION('',(1.,-1.69241314729445E-15,0.));
#322=DIRECTION('',(-1.45888810673884E-15,-1.,0.));
#323=DIRECTION('',(0.999999999999999,-1.82602471155453E-15,0.));
#324=DIRECTION('',(-1.45888810673884E-15,-1.,0.));
#325=DIRECTION('',(1.,-1.44655842806086E-15,0.));
#326=DIRECTION('',(-1.45888810673884E-15,-1.,0.));
#327=DIRECTION('',(0.999999999999999,-1.82602471155453E-15,0.));
#328=CARTESIAN_POINT('',(0.,0.,0.));
#329=CARTESIAN_POINT('',(-30.,-11.2,7.24224204717822E-15));
#330=CARTESIAN_POINT('',(-27.95,-11.2,7.24224204717822E-15));
#331=CARTESIAN_POINT('',(-30.,-11.2,7.24224204717822E-15));
#332=CARTESIAN_POINT('',(-30.95,-11.2,7.24224204717822E-15));
#333=CARTESIAN_POINT('',(-27.95,-11.2,7.24224204717822E-15));
#334=CARTESIAN_POINT('',(-30.,-2.34999999999998,7.24224204717822E-15));
#335=CARTESIAN_POINT('',(-28.15,-2.34999999999998,7.24224204717822E-15));
#336=CARTESIAN_POINT('',(-30.,1.56125112837913E-14,7.24224204717822E-15));
#337=CARTESIAN_POINT('',(-30.,1.56125112837913E-14,1.85000000000001));
#338=CARTESIAN_POINT('',(-30.,-11.2,7.24224204717822E-15));
#339=CARTESIAN_POINT('',(-30.,-2.34999999999998,7.24224204717822E-15));
#340=CARTESIAN_POINT('',(-27.95,-2.34999999999998,7.24224204717822E-15));
#341=CARTESIAN_POINT('',(-28.15,-2.34999999999998,7.24224204717822E-15));
#342=CARTESIAN_POINT('',(-30.,1.47451495458029E-14,-7.70371977754894E-31));
#343=CARTESIAN_POINT('',(-30.,1.47451495458029E-14,2.));
#344=CARTESIAN_POINT('',(-30.8991622700371,1.47451495458029E-14,1.81442338282489));
#345=CARTESIAN_POINT('',(-30.,0.860636883091253,-7.70371977754894E-31));
#346=CARTESIAN_POINT('',(-30.,0.860636883091253,2.));
#347=CARTESIAN_POINT('',(-30.,2.00000000000001,-7.70371977754894E-31));
#348=CARTESIAN_POINT('',(-30.,3.47270223243005,7.24224204717822E-15));
#349=CARTESIAN_POINT('',(-31.25,3.47270223243005,7.24224204717822E-15));
#350=CARTESIAN_POINT('',(-30.,3.01773943959729,7.24224204717822E-15));
#351=CARTESIAN_POINT('',(-30.,3.01773943959729,7.24224204717822E-15));
#352=CARTESIAN_POINT('',(-30.,13.,7.24224204717822E-15));
#353=CARTESIAN_POINT('',(-28.75,13.,7.24224204717822E-15));
#354=CARTESIAN_POINT('',(-30.,-11.2,7.24224204717822E-15));
#355=CARTESIAN_POINT('',(-30.,13.,7.24224204717822E-15));
#356=CARTESIAN_POINT('',(-28.15,13.,7.24224204717822E-15));
#357=CARTESIAN_POINT('',(-28.5703623765903,13.,7.24224204717822E-15));
#358=CARTESIAN_POINT('',(-30.,2.00000000000001,7.24224204717822E-15));
#359=CARTESIAN_POINT('',(-30.,2.00000000000001,1.85000000000001));
#360=CARTESIAN_POINT('',(-30.,-11.2,7.24224204717822E-15));
#361=CARTESIAN_POINT('',(-30.,2.00000000000001,-7.70371977754894E-31));
#362=CARTESIAN_POINT('',(-30.,-9.74999999999998,7.24224204717822E-15));
#363=CARTESIAN_POINT('',(-27.95,-9.74999999999998,7.24224204717822E-15));
#364=CARTESIAN_POINT('',(-30.,-11.2,7.24224204717822E-15));
#365=CARTESIAN_POINT('',(-30.,-9.19999999999999,7.24224204717822E-15));
#366=CARTESIAN_POINT('',(-28.5,-9.19999999999999,7.24224204717822E-15));
#367=CARTESIAN_POINT('',(-30.,-9.19999999999999,7.24224204717822E-15));
#368=CARTESIAN_POINT('',(-30.,-4.69999999999999,7.24224204717822E-15));
#369=CARTESIAN_POINT('',(-28.5,-4.69999999999999,7.24224204717822E-15));
#370=CARTESIAN_POINT('',(-30.,-11.2,7.24224204717822E-15));
#371=CARTESIAN_POINT('',(-30.,-4.14999999999998,7.24224204717822E-15));
#372=CARTESIAN_POINT('',(-27.95,-4.14999999999999,7.24224204717822E-15));
#373=CARTESIAN_POINT('',(-30.,-4.14999999999998,7.24224204717822E-15));
#374=CARTESIAN_POINT('',(-30.,-11.2,7.24224204717822E-15));
#375=CARTESIAN_POINT('',(-30.,-3.79198079911437,7.24224204717822E-15));
#376=CARTESIAN_POINT('',(-30.,-4.23497307436161,7.24224204717822E-15));
#377=CARTESIAN_POINT('',(-29.05,-4.23497307436161,7.24224204717822E-15));
#378=CARTESIAN_POINT('',(-30.,-4.19999999999999,7.24224204717822E-15));
#379=CARTESIAN_POINT('',(-30.,-11.2,7.24224204717822E-15));
#380=MECHANICAL_DESIGN_GEOMETRIC_PRESENTATION_REPRESENTATION('',(#26,#23),
#381);
#381=(
GEOMETRIC_REPRESENTATION_CONTEXT(3)
GLOBAL_UNCERTAINTY_ASSIGNED_CONTEXT((#382))
GLOBAL_UNIT_ASSIGNED_CONTEXT((#388,#384,#383))
REPRESENTATION_CONTEXT('n 02 025 00xx 1nxc001-02',
'TOP_LEVEL_ASSEMBLY_PART')
);
#382=UNCERTAINTY_MEASURE_WITH_UNIT(LENGTH_MEASURE(2.E-5),#388,
'DISTANCE_ACCURACY_VALUE','Maximum Tolerance applied to model');
#383=(
NAMED_UNIT(*)
SI_UNIT($,.STERADIAN.)
SOLID_ANGLE_UNIT()
);
#384=(
CONVERSION_BASED_UNIT('DEGREE',#386)
NAMED_UNIT(#385)
PLANE_ANGLE_UNIT()
);
#385=DIMENSIONAL_EXPONENTS(0.,0.,0.,0.,0.,0.,0.);
#386=PLANE_ANGLE_MEASURE_WITH_UNIT(PLANE_ANGLE_MEASURE(0.0174532925),#387);
#387=(
NAMED_UNIT(*)
PLANE_ANGLE_UNIT()
SI_UNIT($,.RADIAN.)
);
#388=(
LENGTH_UNIT()
NAMED_UNIT(*)
SI_UNIT(.MILLI.,.METRE.)
);
ENDSEC;
END-ISO-10303-21;
