ISO-10303-21;
HEADER;
/* Generated by software containing ST-Developer
 * from STEP Tools, Inc. (www.steptools.com) 
 */
/* OPTION: using custom schema-name function */

FILE_DESCRIPTION(
/* description */ (''),
/* implementation_level */ '2;1');

FILE_NAME(
/* name */ 'n 02 025 0032.stp',
/* time_stamp */ '2019-01-03T14:56:28+01:00',
/* author */ (''),
/* organization */ (''),
/* preprocessor_version */ 'ST-DEVELOPER v16',
/* originating_system */ 'SIEMENS PLM Software NX 11.0',
/* authorisation */ '');

FILE_SCHEMA (('AUTOMOTIVE_DESIGN { 1 0 10303 214 3 1 1 1 }'));
ENDSEC;

DATA;
#10=SHAPE_REPRESENTATION_RELATIONSHIP('None',
'relationship between n 02 025 00xx xnxm001-01-None and n 02 025 00xx 
xnxm001-01-None',#22,#11);
#11=ADVANCED_BREP_SHAPE_REPRESENTATION('n 02 025 00xx xnxm001-01-None',
(#54),#531);
#12=SHAPE_DEFINITION_REPRESENTATION(#13,#22);
#13=PRODUCT_DEFINITION_SHAPE('','',#14);
#14=PRODUCT_DEFINITION(' ','',#16,#15);
#15=PRODUCT_DEFINITION_CONTEXT('part definition',#21,'design');
#16=PRODUCT_DEFINITION_FORMATION_WITH_SPECIFIED_SOURCE(' ',' ',#18,
 .NOT_KNOWN.);
#17=PRODUCT_RELATED_PRODUCT_CATEGORY('part','',(#18));
#18=PRODUCT('n 02 025 00xx xnxm001-01','n 02 025 00xx xnxm001-01',' ',(#19));
#19=PRODUCT_CONTEXT(' ',#21,'mechanical');
#20=APPLICATION_PROTOCOL_DEFINITION('international standard',
'automotive_design',2010,#21);
#21=APPLICATION_CONTEXT(
'core data for automotive mechanical design processes');
#22=SHAPE_REPRESENTATION('n 02 025 00xx xnxm001-01-None',(#314),#531);
#23=OVER_RIDING_STYLED_ITEM('',(#30),#97,#28);
#24=OVER_RIDING_STYLED_ITEM('',(#31),#98,#28);
#25=OVER_RIDING_STYLED_ITEM('',(#32),#99,#28);
#26=DRAUGHTING_PRE_DEFINED_COLOUR('cyan');
#27=PRESENTATION_LAYER_ASSIGNMENT('1','Layer 1',(#54));
#28=STYLED_ITEM('',(#29),#54);
#29=PRESENTATION_STYLE_ASSIGNMENT((#33));
#30=PRESENTATION_STYLE_ASSIGNMENT((#34));
#31=PRESENTATION_STYLE_ASSIGNMENT((#35));
#32=PRESENTATION_STYLE_ASSIGNMENT((#36));
#33=SURFACE_STYLE_USAGE(.BOTH.,#37);
#34=SURFACE_STYLE_USAGE(.BOTH.,#38);
#35=SURFACE_STYLE_USAGE(.BOTH.,#39);
#36=SURFACE_STYLE_USAGE(.BOTH.,#40);
#37=SURFACE_SIDE_STYLE('',(#41));
#38=SURFACE_SIDE_STYLE('',(#42));
#39=SURFACE_SIDE_STYLE('',(#43));
#40=SURFACE_SIDE_STYLE('',(#44));
#41=SURFACE_STYLE_FILL_AREA(#45);
#42=SURFACE_STYLE_FILL_AREA(#46);
#43=SURFACE_STYLE_FILL_AREA(#47);
#44=SURFACE_STYLE_FILL_AREA(#48);
#45=FILL_AREA_STYLE('',(#49));
#46=FILL_AREA_STYLE('',(#50));
#47=FILL_AREA_STYLE('',(#51));
#48=FILL_AREA_STYLE('',(#52));
#49=FILL_AREA_STYLE_COLOUR('',#53);
#50=FILL_AREA_STYLE_COLOUR('',#26);
#51=FILL_AREA_STYLE_COLOUR('',#26);
#52=FILL_AREA_STYLE_COLOUR('',#26);
#53=COLOUR_RGB('Tiefes Orange',1.,0.4,0.);
#54=MANIFOLD_SOLID_BREP('',#55);
#55=CLOSED_SHELL('',(#78,#79,#80,#81,#82,#83,#84,#85,#86,#87,#88,#89,#90,
#91,#92,#93,#94,#95,#96,#97,#98,#99,#100,#101));
#56=VERTEX_LOOP('',#267);
#57=FACE_OUTER_BOUND('',#168,.T.);
#58=CONICAL_SURFACE('',#322,1.95,45.0000000000001);
#59=CONICAL_SURFACE('',#326,2.05,45.0000000000001);
#60=CONICAL_SURFACE('',#330,1.725,44.9999999999999);
#61=CONICAL_SURFACE('',#342,2.05,45.0000000000002);
#62=CONICAL_SURFACE('',#344,1.95,44.9999999999992);
#63=CONICAL_SURFACE('',#348,2.05,45.0000000000006);
#64=CONICAL_SURFACE('',#350,1.95,45.0000000000004);
#65=CONICAL_SURFACE('',#353,2.05,45.0000000000002);
#66=CONICAL_SURFACE('',#355,1.8,7.66680426181414);
#67=CONICAL_SURFACE('',#358,1.975,3.01278750418332);
#68=CONICAL_SURFACE('',#360,0.,70.);
#69=CYLINDRICAL_SURFACE('',#319,1.825);
#70=CYLINDRICAL_SURFACE('',#324,2.05);
#71=CYLINDRICAL_SURFACE('',#328,1.725);
#72=CYLINDRICAL_SURFACE('',#332,2.05);
#73=CYLINDRICAL_SURFACE('',#336,1.85);
#74=CYLINDRICAL_SURFACE('',#340,2.05);
#75=CYLINDRICAL_SURFACE('',#346,2.05);
#76=CYLINDRICAL_SURFACE('',#352,2.05);
#77=CYLINDRICAL_SURFACE('',#361,1.325);
#78=ADVANCED_FACE('',(#106,#107),#102,.F.);
#79=ADVANCED_FACE('',(#108,#109),#69,.T.);
#80=ADVANCED_FACE('',(#110,#111),#58,.T.);
#81=ADVANCED_FACE('',(#112,#113),#70,.T.);
#82=ADVANCED_FACE('',(#114,#115),#59,.T.);
#83=ADVANCED_FACE('',(#116,#117),#71,.T.);
#84=ADVANCED_FACE('',(#118,#119),#60,.T.);
#85=ADVANCED_FACE('',(#120,#121),#72,.T.);
#86=ADVANCED_FACE('',(#57),#103,.F.);
#87=ADVANCED_FACE('',(#122,#123),#73,.T.);
#88=ADVANCED_FACE('',(#124,#125),#104,.F.);
#89=ADVANCED_FACE('',(#126,#127),#74,.T.);
#90=ADVANCED_FACE('',(#128,#129),#61,.T.);
#91=ADVANCED_FACE('',(#130,#131),#62,.T.);
#92=ADVANCED_FACE('',(#132,#133),#75,.T.);
#93=ADVANCED_FACE('',(#134,#135),#63,.T.);
#94=ADVANCED_FACE('',(#136,#137),#64,.T.);
#95=ADVANCED_FACE('',(#138,#139),#76,.T.);
#96=ADVANCED_FACE('',(#140,#141),#65,.T.);
#97=ADVANCED_FACE('',(#142,#143),#66,.T.);
#98=ADVANCED_FACE('',(#144,#145),#105,.F.);
#99=ADVANCED_FACE('',(#146,#147),#67,.T.);
#100=ADVANCED_FACE('',(#148,#149),#68,.F.);
#101=ADVANCED_FACE('',(#150,#151),#77,.F.);
#102=PLANE('',#317);
#103=PLANE('',#333);
#104=PLANE('',#338);
#105=PLANE('',#357);
#106=FACE_BOUND('',#152,.T.);
#107=FACE_BOUND('',#153,.T.);
#108=FACE_BOUND('',#154,.T.);
#109=FACE_BOUND('',#155,.T.);
#110=FACE_BOUND('',#156,.T.);
#111=FACE_BOUND('',#157,.T.);
#112=FACE_BOUND('',#158,.T.);
#113=FACE_BOUND('',#159,.T.);
#114=FACE_BOUND('',#160,.T.);
#115=FACE_BOUND('',#161,.T.);
#116=FACE_BOUND('',#162,.T.);
#117=FACE_BOUND('',#163,.T.);
#118=FACE_BOUND('',#164,.T.);
#119=FACE_BOUND('',#165,.T.);
#120=FACE_BOUND('',#166,.T.);
#121=FACE_BOUND('',#167,.T.);
#122=FACE_BOUND('',#169,.T.);
#123=FACE_BOUND('',#170,.T.);
#124=FACE_BOUND('',#171,.T.);
#125=FACE_BOUND('',#172,.T.);
#126=FACE_BOUND('',#173,.T.);
#127=FACE_BOUND('',#174,.T.);
#128=FACE_BOUND('',#175,.T.);
#129=FACE_BOUND('',#176,.T.);
#130=FACE_BOUND('',#177,.T.);
#131=FACE_BOUND('',#178,.T.);
#132=FACE_BOUND('',#179,.T.);
#133=FACE_BOUND('',#180,.T.);
#134=FACE_BOUND('',#181,.T.);
#135=FACE_BOUND('',#182,.T.);
#136=FACE_BOUND('',#183,.T.);
#137=FACE_BOUND('',#184,.T.);
#138=FACE_BOUND('',#185,.T.);
#139=FACE_BOUND('',#186,.T.);
#140=FACE_BOUND('',#187,.T.);
#141=FACE_BOUND('',#188,.T.);
#142=FACE_BOUND('',#189,.T.);
#143=FACE_BOUND('',#190,.T.);
#144=FACE_BOUND('',#191,.T.);
#145=FACE_BOUND('',#192,.T.);
#146=FACE_BOUND('',#193,.T.);
#147=FACE_BOUND('',#194,.T.);
#148=FACE_BOUND('',#195,.T.);
#149=FACE_BOUND('',#56,.T.);
#150=FACE_BOUND('',#196,.T.);
#151=FACE_BOUND('',#197,.T.);
#152=EDGE_LOOP('',(#198));
#153=EDGE_LOOP('',(#199));
#154=EDGE_LOOP('',(#200));
#155=EDGE_LOOP('',(#201));
#156=EDGE_LOOP('',(#202));
#157=EDGE_LOOP('',(#203));
#158=EDGE_LOOP('',(#204));
#159=EDGE_LOOP('',(#205));
#160=EDGE_LOOP('',(#206));
#161=EDGE_LOOP('',(#207));
#162=EDGE_LOOP('',(#208));
#163=EDGE_LOOP('',(#209));
#164=EDGE_LOOP('',(#210));
#165=EDGE_LOOP('',(#211));
#166=EDGE_LOOP('',(#212));
#167=EDGE_LOOP('',(#213));
#168=EDGE_LOOP('',(#214));
#169=EDGE_LOOP('',(#215));
#170=EDGE_LOOP('',(#216));
#171=EDGE_LOOP('',(#217));
#172=EDGE_LOOP('',(#218));
#173=EDGE_LOOP('',(#219));
#174=EDGE_LOOP('',(#220));
#175=EDGE_LOOP('',(#221));
#176=EDGE_LOOP('',(#222));
#177=EDGE_LOOP('',(#223));
#178=EDGE_LOOP('',(#224));
#179=EDGE_LOOP('',(#225));
#180=EDGE_LOOP('',(#226));
#181=EDGE_LOOP('',(#227));
#182=EDGE_LOOP('',(#228));
#183=EDGE_LOOP('',(#229));
#184=EDGE_LOOP('',(#230));
#185=EDGE_LOOP('',(#231));
#186=EDGE_LOOP('',(#232));
#187=EDGE_LOOP('',(#233));
#188=EDGE_LOOP('',(#234));
#189=EDGE_LOOP('',(#235));
#190=EDGE_LOOP('',(#236));
#191=EDGE_LOOP('',(#237));
#192=EDGE_LOOP('',(#238));
#193=EDGE_LOOP('',(#239));
#194=EDGE_LOOP('',(#240));
#195=EDGE_LOOP('',(#241));
#196=EDGE_LOOP('',(#242));
#197=EDGE_LOOP('',(#243));
#198=ORIENTED_EDGE('',*,*,#268,.T.);
#199=ORIENTED_EDGE('',*,*,#269,.T.);
#200=ORIENTED_EDGE('',*,*,#268,.F.);
#201=ORIENTED_EDGE('',*,*,#270,.F.);
#202=ORIENTED_EDGE('',*,*,#271,.F.);
#203=ORIENTED_EDGE('',*,*,#272,.T.);
#204=ORIENTED_EDGE('',*,*,#273,.F.);
#205=ORIENTED_EDGE('',*,*,#271,.T.);
#206=ORIENTED_EDGE('',*,*,#274,.F.);
#207=ORIENTED_EDGE('',*,*,#273,.T.);
#208=ORIENTED_EDGE('',*,*,#275,.F.);
#209=ORIENTED_EDGE('',*,*,#274,.T.);
#210=ORIENTED_EDGE('',*,*,#276,.F.);
#211=ORIENTED_EDGE('',*,*,#275,.T.);
#212=ORIENTED_EDGE('',*,*,#277,.F.);
#213=ORIENTED_EDGE('',*,*,#276,.T.);
#214=ORIENTED_EDGE('',*,*,#277,.T.);
#215=ORIENTED_EDGE('',*,*,#278,.F.);
#216=ORIENTED_EDGE('',*,*,#279,.T.);
#217=ORIENTED_EDGE('',*,*,#280,.F.);
#218=ORIENTED_EDGE('',*,*,#278,.T.);
#219=ORIENTED_EDGE('',*,*,#281,.F.);
#220=ORIENTED_EDGE('',*,*,#280,.T.);
#221=ORIENTED_EDGE('',*,*,#282,.F.);
#222=ORIENTED_EDGE('',*,*,#281,.T.);
#223=ORIENTED_EDGE('',*,*,#283,.F.);
#224=ORIENTED_EDGE('',*,*,#282,.T.);
#225=ORIENTED_EDGE('',*,*,#284,.F.);
#226=ORIENTED_EDGE('',*,*,#283,.T.);
#227=ORIENTED_EDGE('',*,*,#285,.F.);
#228=ORIENTED_EDGE('',*,*,#284,.T.);
#229=ORIENTED_EDGE('',*,*,#286,.F.);
#230=ORIENTED_EDGE('',*,*,#285,.T.);
#231=ORIENTED_EDGE('',*,*,#287,.F.);
#232=ORIENTED_EDGE('',*,*,#286,.T.);
#233=ORIENTED_EDGE('',*,*,#272,.F.);
#234=ORIENTED_EDGE('',*,*,#287,.T.);
#235=ORIENTED_EDGE('',*,*,#288,.F.);
#236=ORIENTED_EDGE('',*,*,#270,.T.);
#237=ORIENTED_EDGE('',*,*,#279,.F.);
#238=ORIENTED_EDGE('',*,*,#289,.T.);
#239=ORIENTED_EDGE('',*,*,#289,.F.);
#240=ORIENTED_EDGE('',*,*,#288,.T.);
#241=ORIENTED_EDGE('',*,*,#290,.F.);
#242=ORIENTED_EDGE('',*,*,#290,.T.);
#243=ORIENTED_EDGE('',*,*,#269,.F.);
#244=VERTEX_POINT('',#460);
#245=VERTEX_POINT('',#462);
#246=VERTEX_POINT('',#465);
#247=VERTEX_POINT('',#468);
#248=VERTEX_POINT('',#470);
#249=VERTEX_POINT('',#473);
#250=VERTEX_POINT('',#476);
#251=VERTEX_POINT('',#479);
#252=VERTEX_POINT('',#482);
#253=VERTEX_POINT('',#485);
#254=VERTEX_POINT('',#489);
#255=VERTEX_POINT('',#491);
#256=VERTEX_POINT('',#494);
#257=VERTEX_POINT('',#497);
#258=VERTEX_POINT('',#500);
#259=VERTEX_POINT('',#503);
#260=VERTEX_POINT('',#506);
#261=VERTEX_POINT('',#509);
#262=VERTEX_POINT('',#512);
#263=VERTEX_POINT('',#515);
#264=VERTEX_POINT('',#519);
#265=VERTEX_POINT('',#522);
#266=VERTEX_POINT('',#526);
#267=VERTEX_POINT('',#527);
#268=EDGE_CURVE('',#244,#244,#291,.T.);
#269=EDGE_CURVE('',#245,#245,#292,.T.);
#270=EDGE_CURVE('',#246,#246,#293,.T.);
#271=EDGE_CURVE('',#247,#247,#294,.T.);
#272=EDGE_CURVE('',#248,#248,#295,.T.);
#273=EDGE_CURVE('',#249,#249,#296,.T.);
#274=EDGE_CURVE('',#250,#250,#297,.T.);
#275=EDGE_CURVE('',#251,#251,#298,.T.);
#276=EDGE_CURVE('',#252,#252,#299,.T.);
#277=EDGE_CURVE('',#253,#253,#300,.T.);
#278=EDGE_CURVE('',#254,#254,#301,.T.);
#279=EDGE_CURVE('',#255,#255,#302,.T.);
#280=EDGE_CURVE('',#256,#256,#303,.T.);
#281=EDGE_CURVE('',#257,#257,#304,.T.);
#282=EDGE_CURVE('',#258,#258,#305,.T.);
#283=EDGE_CURVE('',#259,#259,#306,.T.);
#284=EDGE_CURVE('',#260,#260,#307,.T.);
#285=EDGE_CURVE('',#261,#261,#308,.T.);
#286=EDGE_CURVE('',#262,#262,#309,.T.);
#287=EDGE_CURVE('',#263,#263,#310,.T.);
#288=EDGE_CURVE('',#264,#264,#311,.T.);
#289=EDGE_CURVE('',#265,#265,#312,.T.);
#290=EDGE_CURVE('',#266,#266,#313,.T.);
#291=CIRCLE('',#315,1.825);
#292=CIRCLE('',#316,1.325);
#293=CIRCLE('',#318,1.825);
#294=CIRCLE('',#320,2.05);
#295=CIRCLE('',#321,1.95);
#296=CIRCLE('',#323,2.05);
#297=CIRCLE('',#325,1.725);
#298=CIRCLE('',#327,1.725);
#299=CIRCLE('',#329,2.05);
#300=CIRCLE('',#331,2.05);
#301=CIRCLE('',#334,1.85);
#302=CIRCLE('',#335,1.85);
#303=CIRCLE('',#337,2.05);
#304=CIRCLE('',#339,2.05);
#305=CIRCLE('',#341,1.95);
#306=CIRCLE('',#343,2.05);
#307=CIRCLE('',#345,2.05);
#308=CIRCLE('',#347,1.95);
#309=CIRCLE('',#349,2.05);
#310=CIRCLE('',#351,2.05);
#311=CIRCLE('',#354,1.975);
#312=CIRCLE('',#356,2.025);
#313=CIRCLE('',#359,1.325);
#314=AXIS2_PLACEMENT_3D('',#458,#362,#363);
#315=AXIS2_PLACEMENT_3D('',#459,#364,#365);
#316=AXIS2_PLACEMENT_3D('',#461,#366,#367);
#317=AXIS2_PLACEMENT_3D('',#463,#368,#369);
#318=AXIS2_PLACEMENT_3D('',#464,#370,#371);
#319=AXIS2_PLACEMENT_3D('',#466,#372,#373);
#320=AXIS2_PLACEMENT_3D('',#467,#374,#375);
#321=AXIS2_PLACEMENT_3D('',#469,#376,#377);
#322=AXIS2_PLACEMENT_3D('',#471,#378,#379);
#323=AXIS2_PLACEMENT_3D('',#472,#380,#381);
#324=AXIS2_PLACEMENT_3D('',#474,#382,#383);
#325=AXIS2_PLACEMENT_3D('',#475,#384,#385);
#326=AXIS2_PLACEMENT_3D('',#477,#386,#387);
#327=AXIS2_PLACEMENT_3D('',#478,#388,#389);
#328=AXIS2_PLACEMENT_3D('',#480,#390,#391);
#329=AXIS2_PLACEMENT_3D('',#481,#392,#393);
#330=AXIS2_PLACEMENT_3D('',#483,#394,#395);
#331=AXIS2_PLACEMENT_3D('',#484,#396,#397);
#332=AXIS2_PLACEMENT_3D('',#486,#398,#399);
#333=AXIS2_PLACEMENT_3D('',#487,#400,#401);
#334=AXIS2_PLACEMENT_3D('',#488,#402,#403);
#335=AXIS2_PLACEMENT_3D('',#490,#404,#405);
#336=AXIS2_PLACEMENT_3D('',#492,#406,#407);
#337=AXIS2_PLACEMENT_3D('',#493,#408,#409);
#338=AXIS2_PLACEMENT_3D('',#495,#410,#411);
#339=AXIS2_PLACEMENT_3D('',#496,#412,#413);
#340=AXIS2_PLACEMENT_3D('',#498,#414,#415);
#341=AXIS2_PLACEMENT_3D('',#499,#416,#417);
#342=AXIS2_PLACEMENT_3D('',#501,#418,#419);
#343=AXIS2_PLACEMENT_3D('',#502,#420,#421);
#344=AXIS2_PLACEMENT_3D('',#504,#422,#423);
#345=AXIS2_PLACEMENT_3D('',#505,#424,#425);
#346=AXIS2_PLACEMENT_3D('',#507,#426,#427);
#347=AXIS2_PLACEMENT_3D('',#508,#428,#429);
#348=AXIS2_PLACEMENT_3D('',#510,#430,#431);
#349=AXIS2_PLACEMENT_3D('',#511,#432,#433);
#350=AXIS2_PLACEMENT_3D('',#513,#434,#435);
#351=AXIS2_PLACEMENT_3D('',#514,#436,#437);
#352=AXIS2_PLACEMENT_3D('',#516,#438,#439);
#353=AXIS2_PLACEMENT_3D('',#517,#440,#441);
#354=AXIS2_PLACEMENT_3D('',#518,#442,#443);
#355=AXIS2_PLACEMENT_3D('',#520,#444,#445);
#356=AXIS2_PLACEMENT_3D('',#521,#446,#447);
#357=AXIS2_PLACEMENT_3D('',#523,#448,#449);
#358=AXIS2_PLACEMENT_3D('',#524,#450,#451);
#359=AXIS2_PLACEMENT_3D('',#525,#452,#453);
#360=AXIS2_PLACEMENT_3D('',#528,#454,#455);
#361=AXIS2_PLACEMENT_3D('',#529,#456,#457);
#362=DIRECTION('',(0.,0.,1.));
#363=DIRECTION('',(1.,0.,0.));
#364=DIRECTION('',(5.68874607659171E-16,1.,0.));
#365=DIRECTION('',(1.,-9.5053341149414E-16,0.));
#366=DIRECTION('',(-5.68874607659171E-16,-1.,0.));
#367=DIRECTION('',(1.,0.,0.));
#368=DIRECTION('',(-5.68874607659171E-16,-1.,0.));
#369=DIRECTION('',(1.,-5.68989300120393E-16,0.));
#370=DIRECTION('',(-6.66133814775094E-17,-1.,0.));
#371=DIRECTION('',(1.,-1.18816676436768E-16,0.));
#372=DIRECTION('',(-5.68874607659171E-16,-1.,0.));
#373=DIRECTION('',(1.,-9.5053341149414E-16,0.));
#374=DIRECTION('',(-5.68874607659171E-16,-1.,0.));
#375=DIRECTION('',(1.,-4.23103286823612E-16,0.));
#376=DIRECTION('',(-5.68874607659171E-16,-1.,0.));
#377=DIRECTION('',(1.,-4.44800891276104E-16,0.));
#378=DIRECTION('',(-5.68874607659171E-16,-1.,0.));
#379=DIRECTION('',(1.,-6.06837245700753E-16,0.));
#380=DIRECTION('',(-5.68874607659171E-16,-1.,0.));
#381=DIRECTION('',(1.,-4.23103286823612E-16,0.));
#382=DIRECTION('',(-5.68874607659171E-16,-1.,0.));
#383=DIRECTION('',(1.,-8.46206573647223E-16,0.));
#384=DIRECTION('',(-5.68874607659171E-16,-1.,0.));
#385=DIRECTION('',(1.,-5.02818398833857E-16,0.));
#386=DIRECTION('',(5.68874607659171E-16,1.,0.));
#387=DIRECTION('',(-1.,6.07642273407372E-16,0.));
#388=DIRECTION('',(-5.68874607659171E-16,-1.,0.));
#389=DIRECTION('',(1.,-1.00563679766771E-15,0.));
#390=DIRECTION('',(-5.68874607659171E-16,-1.,0.));
#391=DIRECTION('',(1.,-1.00563679766771E-15,0.));
#392=DIRECTION('',(-5.68874607659171E-16,-1.,0.));
#393=DIRECTION('',(1.,-8.46206573647223E-16,0.));
#394=DIRECTION('',(-5.68874607659171E-16,-1.,0.));
#395=DIRECTION('',(1.,-5.85326846070691E-16,0.));
#396=DIRECTION('',(-5.68874607659171E-16,-1.,0.));
#397=DIRECTION('',(1.,-8.46206573647224E-16,0.));
#398=DIRECTION('',(-5.68874607659171E-16,-1.,0.));
#399=DIRECTION('',(1.,-8.46206573647224E-16,0.));
#400=DIRECTION('',(5.68874607659171E-16,1.,0.));
#401=DIRECTION('',(-1.,5.68989300120393E-16,0.));
#402=DIRECTION('',(-5.68874607659171E-16,-1.,0.));
#403=DIRECTION('',(1.,-4.68844182696434E-16,0.));
#404=DIRECTION('',(-5.68874607659171E-16,-1.,0.));
#405=DIRECTION('',(1.,-5.86055228370543E-16,0.));
#406=DIRECTION('',(-5.68874607659171E-16,-1.,0.));
#407=DIRECTION('',(1.,-9.37688365392869E-16,0.));
#408=DIRECTION('',(-5.68874607659171E-16,-1.,0.));
#409=DIRECTION('',(1.,-6.34654930235417E-16,0.));
#410=DIRECTION('',(-5.68874607659171E-16,-1.,0.));
#411=DIRECTION('',(1.,-5.68989300120393E-16,0.));
#412=DIRECTION('',(-5.68874607659171E-16,-1.,0.));
#413=DIRECTION('',(1.,-6.34654930235417E-16,0.));
#414=DIRECTION('',(-5.68874607659171E-16,-1.,0.));
#415=DIRECTION('',(1.,-8.46206573647223E-16,0.));
#416=DIRECTION('',(-5.68874607659171E-16,-1.,0.));
#417=DIRECTION('',(1.,-6.67201336914157E-16,0.));
#418=DIRECTION('',(5.68874607659171E-16,1.,0.));
#419=DIRECTION('',(-1.,5.81674654885688E-16,0.));
#420=DIRECTION('',(-5.68874607659171E-16,-1.,0.));
#421=DIRECTION('',(1.,-6.34654930235417E-16,0.));
#422=DIRECTION('',(-5.68874607659171E-16,-1.,0.));
#423=DIRECTION('',(1.,-7.3755397052362E-16,0.));
#424=DIRECTION('',(-5.68874607659171E-16,-1.,0.));
#425=DIRECTION('',(1.,-6.34654930235417E-16,0.));
#426=DIRECTION('',(-5.68874607659171E-16,-1.,0.));
#427=DIRECTION('',(1.,-8.46206573647223E-16,0.));
#428=DIRECTION('',(-5.68874607659171E-16,-1.,0.));
#429=DIRECTION('',(1.,-6.67201336914157E-16,0.));
#430=DIRECTION('',(5.68874607659171E-16,1.,0.));
#431=DIRECTION('',(-1.,5.38395290682875E-16,0.));
#432=DIRECTION('',(-5.68874607659171E-16,-1.,0.));
#433=DIRECTION('',(1.,-6.34654930235418E-16,0.));
#434=DIRECTION('',(-5.68874607659171E-16,-1.,0.));
#435=DIRECTION('',(1.,-6.71762771275006E-16,0.));
#436=DIRECTION('',(-5.68874607659171E-16,-1.,0.));
#437=DIRECTION('',(1.,-4.23103286823612E-16,0.));
#438=DIRECTION('',(-5.68874607659171E-16,-1.,0.));
#439=DIRECTION('',(1.,-8.46206573647223E-16,0.));
#440=DIRECTION('',(5.68874607659171E-16,1.,0.));
#441=DIRECTION('',(-1.,6.02448749703034E-16,0.));
#442=DIRECTION('',(-6.66133814775094E-17,-1.,0.));
#443=DIRECTION('',(1.,-5.48963125309117E-17,0.));
#444=DIRECTION('',(-6.66133814775094E-17,-1.,0.));
#445=DIRECTION('',(1.,3.71957032671808E-16,0.));
#446=DIRECTION('',(-6.66133814775094E-17,-1.,0.));
#447=DIRECTION('',(-1.,5.35408480239756E-17,0.));
#448=DIRECTION('',(6.66133814775094E-17,1.,0.));
#449=DIRECTION('',(-1.,6.657001339061E-17,0.));
#450=DIRECTION('',(-6.66133814775094E-17,-1.,0.));
#451=DIRECTION('',(1.,-4.99347975347294E-16,0.));
#452=DIRECTION('',(-5.68874607659171E-16,-1.,0.));
#453=DIRECTION('',(1.,-6.54612632444077E-16,0.));
#454=DIRECTION('',(5.68874607659171E-16,1.,0.));
#455=DIRECTION('',(-1.,5.86559182532736E-16,0.));
#456=DIRECTION('',(-5.68874607659171E-16,-1.,0.));
#457=DIRECTION('',(1.,0.,0.));
#458=CARTESIAN_POINT('',(0.,0.,0.));
#459=CARTESIAN_POINT('',(-1.54556508641689,12.5473106563091,0.));
#460=CARTESIAN_POINT('',(0.279434913583109,12.5473106563091,0.));
#461=CARTESIAN_POINT('',(-1.54556508641689,12.5473106563091,0.));
#462=CARTESIAN_POINT('',(-0.220565086416887,12.5473106563091,0.));
#463=CARTESIAN_POINT('',(-0.115927463007211,12.5473106563091,0.));
#464=CARTESIAN_POINT('',(-1.54556508641691,1.51159637059483,2.77333911991762E-32));
#465=CARTESIAN_POINT('',(-2.50197952398158,1.51159637059483,-1.55431541960371));
#466=CARTESIAN_POINT('',(-1.5455650864169,-11.6526893436909,0.));
#467=CARTESIAN_POINT('',(-1.5455650864169,-4.50268934369087,0.));
#468=CARTESIAN_POINT('',(0.504434913583099,-4.50268934369087,0.));
#469=CARTESIAN_POINT('',(-1.5455650864169,-4.40268934369087,0.));
#470=CARTESIAN_POINT('',(0.404434913583099,-4.40268934369087,0.));
#471=CARTESIAN_POINT('',(-1.5455650864169,-4.40268934369087,0.));
#472=CARTESIAN_POINT('',(-1.5455650864169,-4.82768934369088,0.));
#473=CARTESIAN_POINT('',(0.504434913583098,-4.82768934369088,0.));
#474=CARTESIAN_POINT('',(-1.5455650864169,-11.6526893436909,0.));
#475=CARTESIAN_POINT('',(-1.5455650864169,-5.15268934369087,0.));
#476=CARTESIAN_POINT('',(0.179434913583098,-5.15268934369087,0.));
#477=CARTESIAN_POINT('',(-1.5455650864169,-4.82768934369088,0.));
#478=CARTESIAN_POINT('',(-1.5455650864169,-9.65268934369087,0.));
#479=CARTESIAN_POINT('',(0.179434913583095,-9.65268934369087,0.));
#480=CARTESIAN_POINT('',(-1.5455650864169,-11.6526893436909,0.));
#481=CARTESIAN_POINT('',(-1.5455650864169,-9.97768934369087,0.));
#482=CARTESIAN_POINT('',(0.504434913583095,-9.97768934369087,0.));
#483=CARTESIAN_POINT('',(-1.5455650864169,-9.65268934369087,0.));
#484=CARTESIAN_POINT('',(-1.5455650864169,-11.6526893436909,0.));
#485=CARTESIAN_POINT('',(0.504434913583093,-11.6526893436909,0.));
#486=CARTESIAN_POINT('',(-1.5455650864169,-11.6526893436909,0.));
#487=CARTESIAN_POINT('',(0.504434913583093,-11.6526893436909,0.));
#488=CARTESIAN_POINT('',(-1.5455650864169,-2.80268934369087,0.));
#489=CARTESIAN_POINT('',(0.3044349135831,-2.80268934369087,0.));
#490=CARTESIAN_POINT('',(-1.5455650864169,-0.552689343690873,0.));
#491=CARTESIAN_POINT('',(-2.49806511174685,-0.552689343690872,-1.58595198595243));
#492=CARTESIAN_POINT('',(-1.5455650864169,-11.6526893436909,0.));
#493=CARTESIAN_POINT('',(-1.5455650864169,-2.80268934369087,0.));
#494=CARTESIAN_POINT('',(0.504434913583099,-2.80268934369087,0.));
#495=CARTESIAN_POINT('',(0.3044349135831,-2.80268934369087,0.));
#496=CARTESIAN_POINT('',(-1.5455650864169,-3.10268934369087,0.));
#497=CARTESIAN_POINT('',(0.5044349135831,-3.10268934369087,0.));
#498=CARTESIAN_POINT('',(-1.5455650864169,-11.6526893436909,0.));
#499=CARTESIAN_POINT('',(-1.5455650864169,-3.20268934369087,0.));
#500=CARTESIAN_POINT('',(0.4044349135831,-3.20268934369087,0.));
#501=CARTESIAN_POINT('',(-1.5455650864169,-3.10268934369087,0.));
#502=CARTESIAN_POINT('',(-1.5455650864169,-3.30268934369088,0.));
#503=CARTESIAN_POINT('',(0.5044349135831,-3.30268934369088,0.));
#504=CARTESIAN_POINT('',(-1.5455650864169,-3.20268934369087,0.));
#505=CARTESIAN_POINT('',(-1.5455650864169,-3.70268934369087,0.));
#506=CARTESIAN_POINT('',(0.504434913583099,-3.70268934369088,0.));
#507=CARTESIAN_POINT('',(-1.5455650864169,-11.6526893436909,0.));
#508=CARTESIAN_POINT('',(-1.5455650864169,-3.80268934369087,0.));
#509=CARTESIAN_POINT('',(0.404434913583099,-3.80268934369087,0.));
#510=CARTESIAN_POINT('',(-1.5455650864169,-3.70268934369087,0.));
#511=CARTESIAN_POINT('',(-1.5455650864169,-3.90268934369087,0.));
#512=CARTESIAN_POINT('',(0.504434913583098,-3.90268934369087,0.));
#513=CARTESIAN_POINT('',(-1.5455650864169,-3.80268934369087,0.));
#514=CARTESIAN_POINT('',(-1.5455650864169,-4.30268934369087,0.));
#515=CARTESIAN_POINT('',(0.504434913583098,-4.30268934369087,0.));
#516=CARTESIAN_POINT('',(-1.5455650864169,-11.6526893436909,0.));
#517=CARTESIAN_POINT('',(-1.5455650864169,-4.30268934369087,0.));
#518=CARTESIAN_POINT('',(-1.54556508641691,0.397310656309129,2.77333911991762E-32));
#519=CARTESIAN_POINT('',(-2.48257037170008,0.39731065630913,-1.73857588139011));
#520=CARTESIAN_POINT('',(-1.54556508641691,1.69731065630913,2.77333911991762E-32));
#521=CARTESIAN_POINT('',(-1.54556508641691,-0.55268934369087,2.77333911991762E-32));
#522=CARTESIAN_POINT('',(-2.47776097237724,-0.55268934369087,-1.79767511808964));
#523=CARTESIAN_POINT('',(-1.5455650864169,-0.55268934369087,2.025));
#524=CARTESIAN_POINT('',(-1.54556508641691,0.397310656309129,2.77333911991762E-32));
#525=CARTESIAN_POINT('',(-1.5455650864169,3.04731065630912,0.));
#526=CARTESIAN_POINT('',(-0.220565086416895,3.04731065630912,0.));
#527=CARTESIAN_POINT('',(-1.5455650864169,2.56505009590641,0.));
#528=CARTESIAN_POINT('',(-1.5455650864169,2.56505009590641,0.));
#529=CARTESIAN_POINT('',(-1.5455650864169,-11.6526893436909,0.));
#530=MECHANICAL_DESIGN_GEOMETRIC_PRESENTATION_REPRESENTATION('',(#28,#23,
#24,#25),#531);
#531=(
GEOMETRIC_REPRESENTATION_CONTEXT(3)
GLOBAL_UNCERTAINTY_ASSIGNED_CONTEXT((#532))
GLOBAL_UNIT_ASSIGNED_CONTEXT((#538,#534,#533))
REPRESENTATION_CONTEXT('n 02 025 0032','TOP_LEVEL_ASSEMBLY_PART')
);
#532=UNCERTAINTY_MEASURE_WITH_UNIT(LENGTH_MEASURE(2.E-5),#538,
'DISTANCE_ACCURACY_VALUE','Maximum Tolerance applied to model');
#533=(
NAMED_UNIT(*)
SI_UNIT($,.STERADIAN.)
SOLID_ANGLE_UNIT()
);
#534=(
CONVERSION_BASED_UNIT('DEGREE',#536)
NAMED_UNIT(#535)
PLANE_ANGLE_UNIT()
);
#535=DIMENSIONAL_EXPONENTS(0.,0.,0.,0.,0.,0.,0.);
#536=PLANE_ANGLE_MEASURE_WITH_UNIT(PLANE_ANGLE_MEASURE(0.0174532925),#537);
#537=(
NAMED_UNIT(*)
PLANE_ANGLE_UNIT()
SI_UNIT($,.RADIAN.)
);
#538=(
LENGTH_UNIT()
NAMED_UNIT(*)
SI_UNIT(.MILLI.,.METRE.)
);
ENDSEC;
END-ISO-10303-21;
