ISO-10303-21;
HEADER;
/* Generated by software containing ST-Developer
 * from STEP Tools, Inc. (www.steptools.com) 
 */
/* OPTION: using custom schema-name function */

FILE_DESCRIPTION(
/* description */ (''),
/* implementation_level */ '2;1');

FILE_NAME(
/* name */ 'n 02 025 0033.stp',
/* time_stamp */ '2019-01-03T14:47:36+01:00',
/* author */ (''),
/* organization */ (''),
/* preprocessor_version */ 'ST-DEVELOPER v16',
/* originating_system */ 'SIEMENS PLM Software NX 11.0',
/* authorisation */ '');

FILE_SCHEMA (('AUTOMOTIVE_DESIGN { 1 0 10303 214 3 1 1 1 }'));
ENDSEC;

DATA;
#10=SHAPE_REPRESENTATION_RELATIONSHIP('None',
'relationship between n 02 025 0033nxm001-01-None and n 02 025 0033nxm
001-01-None',#22,#11);
#11=ADVANCED_BREP_SHAPE_REPRESENTATION('n 02 025 0033nxm001-01-None',(#117),
#414);
#12=SHAPE_DEFINITION_REPRESENTATION(#13,#22);
#13=PRODUCT_DEFINITION_SHAPE('','',#14);
#14=PRODUCT_DEFINITION(' ','',#16,#15);
#15=PRODUCT_DEFINITION_CONTEXT('part definition',#21,'design');
#16=PRODUCT_DEFINITION_FORMATION_WITH_SPECIFIED_SOURCE(' ',' ',#18,
 .NOT_KNOWN.);
#17=PRODUCT_RELATED_PRODUCT_CATEGORY('part','',(#18));
#18=PRODUCT('n 02 025 0033nxm001-01','n 02 025 0033nxm001-01',' ',(#19));
#19=PRODUCT_CONTEXT(' ',#21,'mechanical');
#20=APPLICATION_PROTOCOL_DEFINITION('international standard',
'automotive_design',2010,#21);
#21=APPLICATION_CONTEXT(
'core data for automotive mechanical design processes');
#22=SHAPE_REPRESENTATION('n 02 025 0033nxm001-01-None',(#278),#414);
#23=OVER_RIDING_STYLED_ITEM('',(#39),#132,#37);
#24=OVER_RIDING_STYLED_ITEM('',(#40),#133,#37);
#25=OVER_RIDING_STYLED_ITEM('',(#41),#134,#37);
#26=OVER_RIDING_STYLED_ITEM('',(#42),#135,#37);
#27=OVER_RIDING_STYLED_ITEM('',(#43),#136,#37);
#28=OVER_RIDING_STYLED_ITEM('',(#44),#137,#37);
#29=OVER_RIDING_STYLED_ITEM('',(#45),#138,#37);
#30=OVER_RIDING_STYLED_ITEM('',(#46),#139,#37);
#31=OVER_RIDING_STYLED_ITEM('',(#47),#140,#37);
#32=OVER_RIDING_STYLED_ITEM('',(#48),#141,#37);
#33=OVER_RIDING_STYLED_ITEM('',(#49),#145,#37);
#34=OVER_RIDING_STYLED_ITEM('',(#50),#146,#37);
#35=COLOUR_RGB('Tiefes Orange',1.,0.4,0.);
#36=PRESENTATION_LAYER_ASSIGNMENT('1','Layer 1',(#117));
#37=STYLED_ITEM('',(#38),#117);
#38=PRESENTATION_STYLE_ASSIGNMENT((#51));
#39=PRESENTATION_STYLE_ASSIGNMENT((#52));
#40=PRESENTATION_STYLE_ASSIGNMENT((#53));
#41=PRESENTATION_STYLE_ASSIGNMENT((#54));
#42=PRESENTATION_STYLE_ASSIGNMENT((#55));
#43=PRESENTATION_STYLE_ASSIGNMENT((#56));
#44=PRESENTATION_STYLE_ASSIGNMENT((#57));
#45=PRESENTATION_STYLE_ASSIGNMENT((#58));
#46=PRESENTATION_STYLE_ASSIGNMENT((#59));
#47=PRESENTATION_STYLE_ASSIGNMENT((#60));
#48=PRESENTATION_STYLE_ASSIGNMENT((#61));
#49=PRESENTATION_STYLE_ASSIGNMENT((#62));
#50=PRESENTATION_STYLE_ASSIGNMENT((#63));
#51=SURFACE_STYLE_USAGE(.BOTH.,#64);
#52=SURFACE_STYLE_USAGE(.BOTH.,#65);
#53=SURFACE_STYLE_USAGE(.BOTH.,#66);
#54=SURFACE_STYLE_USAGE(.BOTH.,#67);
#55=SURFACE_STYLE_USAGE(.BOTH.,#68);
#56=SURFACE_STYLE_USAGE(.BOTH.,#69);
#57=SURFACE_STYLE_USAGE(.BOTH.,#70);
#58=SURFACE_STYLE_USAGE(.BOTH.,#71);
#59=SURFACE_STYLE_USAGE(.BOTH.,#72);
#60=SURFACE_STYLE_USAGE(.BOTH.,#73);
#61=SURFACE_STYLE_USAGE(.BOTH.,#74);
#62=SURFACE_STYLE_USAGE(.BOTH.,#75);
#63=SURFACE_STYLE_USAGE(.BOTH.,#76);
#64=SURFACE_SIDE_STYLE('',(#77));
#65=SURFACE_SIDE_STYLE('',(#78));
#66=SURFACE_SIDE_STYLE('',(#79));
#67=SURFACE_SIDE_STYLE('',(#80));
#68=SURFACE_SIDE_STYLE('',(#81));
#69=SURFACE_SIDE_STYLE('',(#82));
#70=SURFACE_SIDE_STYLE('',(#83));
#71=SURFACE_SIDE_STYLE('',(#84));
#72=SURFACE_SIDE_STYLE('',(#85));
#73=SURFACE_SIDE_STYLE('',(#86));
#74=SURFACE_SIDE_STYLE('',(#87));
#75=SURFACE_SIDE_STYLE('',(#88));
#76=SURFACE_SIDE_STYLE('',(#89));
#77=SURFACE_STYLE_FILL_AREA(#90);
#78=SURFACE_STYLE_FILL_AREA(#91);
#79=SURFACE_STYLE_FILL_AREA(#92);
#80=SURFACE_STYLE_FILL_AREA(#93);
#81=SURFACE_STYLE_FILL_AREA(#94);
#82=SURFACE_STYLE_FILL_AREA(#95);
#83=SURFACE_STYLE_FILL_AREA(#96);
#84=SURFACE_STYLE_FILL_AREA(#97);
#85=SURFACE_STYLE_FILL_AREA(#98);
#86=SURFACE_STYLE_FILL_AREA(#99);
#87=SURFACE_STYLE_FILL_AREA(#100);
#88=SURFACE_STYLE_FILL_AREA(#101);
#89=SURFACE_STYLE_FILL_AREA(#102);
#90=FILL_AREA_STYLE('',(#103));
#91=FILL_AREA_STYLE('',(#104));
#92=FILL_AREA_STYLE('',(#105));
#93=FILL_AREA_STYLE('',(#106));
#94=FILL_AREA_STYLE('',(#107));
#95=FILL_AREA_STYLE('',(#108));
#96=FILL_AREA_STYLE('',(#109));
#97=FILL_AREA_STYLE('',(#110));
#98=FILL_AREA_STYLE('',(#111));
#99=FILL_AREA_STYLE('',(#112));
#100=FILL_AREA_STYLE('',(#113));
#101=FILL_AREA_STYLE('',(#114));
#102=FILL_AREA_STYLE('',(#115));
#103=FILL_AREA_STYLE_COLOUR('',#116);
#104=FILL_AREA_STYLE_COLOUR('',#35);
#105=FILL_AREA_STYLE_COLOUR('',#35);
#106=FILL_AREA_STYLE_COLOUR('',#35);
#107=FILL_AREA_STYLE_COLOUR('',#35);
#108=FILL_AREA_STYLE_COLOUR('',#35);
#109=FILL_AREA_STYLE_COLOUR('',#35);
#110=FILL_AREA_STYLE_COLOUR('',#35);
#111=FILL_AREA_STYLE_COLOUR('',#35);
#112=FILL_AREA_STYLE_COLOUR('',#35);
#113=FILL_AREA_STYLE_COLOUR('',#35);
#114=FILL_AREA_STYLE_COLOUR('',#35);
#115=FILL_AREA_STYLE_COLOUR('',#35);
#116=DRAUGHTING_PRE_DEFINED_COLOUR('cyan');
#117=MANIFOLD_SOLID_BREP('',#118);
#118=CLOSED_SHELL('',(#132,#133,#134,#135,#136,#137,#138,#139,#140,#141,
#142,#143,#144,#145,#146));
#119=VERTEX_LOOP('',#249);
#120=FACE_OUTER_BOUND('',#191,.T.);
#121=CONICAL_SURFACE('',#286,2.05,44.9999999999998);
#122=CONICAL_SURFACE('',#290,1.95,44.9999999999991);
#123=CONICAL_SURFACE('',#301,1.8,7.66680426181414);
#124=CONICAL_SURFACE('',#304,1.975,3.01278750418332);
#125=CONICAL_SURFACE('',#306,0.,70.0000000000001);
#126=CYLINDRICAL_SURFACE('',#283,1.825);
#127=CYLINDRICAL_SURFACE('',#288,1.95);
#128=CYLINDRICAL_SURFACE('',#292,2.05);
#129=CYLINDRICAL_SURFACE('',#296,1.85);
#130=CYLINDRICAL_SURFACE('',#299,2.05);
#131=CYLINDRICAL_SURFACE('',#307,1.325);
#132=ADVANCED_FACE('',(#151,#152),#147,.F.);
#133=ADVANCED_FACE('',(#153,#154),#126,.T.);
#134=ADVANCED_FACE('',(#155,#156),#121,.T.);
#135=ADVANCED_FACE('',(#157,#158),#127,.T.);
#136=ADVANCED_FACE('',(#159,#160),#122,.T.);
#137=ADVANCED_FACE('',(#161,#162),#128,.T.);
#138=ADVANCED_FACE('',(#120),#148,.F.);
#139=ADVANCED_FACE('',(#163,#164),#129,.T.);
#140=ADVANCED_FACE('',(#165,#166),#149,.F.);
#141=ADVANCED_FACE('',(#167,#168),#130,.T.);
#142=ADVANCED_FACE('',(#169,#170),#123,.T.);
#143=ADVANCED_FACE('',(#171,#172),#150,.F.);
#144=ADVANCED_FACE('',(#173,#174),#124,.T.);
#145=ADVANCED_FACE('',(#175,#176),#125,.F.);
#146=ADVANCED_FACE('',(#177,#178),#131,.F.);
#147=PLANE('',#281);
#148=PLANE('',#293);
#149=PLANE('',#298);
#150=PLANE('',#303);
#151=FACE_BOUND('',#179,.T.);
#152=FACE_BOUND('',#180,.T.);
#153=FACE_BOUND('',#181,.T.);
#154=FACE_BOUND('',#182,.T.);
#155=FACE_BOUND('',#183,.T.);
#156=FACE_BOUND('',#184,.T.);
#157=FACE_BOUND('',#185,.T.);
#158=FACE_BOUND('',#186,.T.);
#159=FACE_BOUND('',#187,.T.);
#160=FACE_BOUND('',#188,.T.);
#161=FACE_BOUND('',#189,.T.);
#162=FACE_BOUND('',#190,.T.);
#163=FACE_BOUND('',#192,.T.);
#164=FACE_BOUND('',#193,.T.);
#165=FACE_BOUND('',#194,.T.);
#166=FACE_BOUND('',#195,.T.);
#167=FACE_BOUND('',#196,.T.);
#168=FACE_BOUND('',#197,.T.);
#169=FACE_BOUND('',#198,.T.);
#170=FACE_BOUND('',#199,.T.);
#171=FACE_BOUND('',#200,.T.);
#172=FACE_BOUND('',#201,.T.);
#173=FACE_BOUND('',#202,.T.);
#174=FACE_BOUND('',#203,.T.);
#175=FACE_BOUND('',#204,.T.);
#176=FACE_BOUND('',#119,.T.);
#177=FACE_BOUND('',#205,.T.);
#178=FACE_BOUND('',#206,.T.);
#179=EDGE_LOOP('',(#207));
#180=EDGE_LOOP('',(#208));
#181=EDGE_LOOP('',(#209));
#182=EDGE_LOOP('',(#210));
#183=EDGE_LOOP('',(#211));
#184=EDGE_LOOP('',(#212));
#185=EDGE_LOOP('',(#213));
#186=EDGE_LOOP('',(#214));
#187=EDGE_LOOP('',(#215));
#188=EDGE_LOOP('',(#216));
#189=EDGE_LOOP('',(#217));
#190=EDGE_LOOP('',(#218));
#191=EDGE_LOOP('',(#219));
#192=EDGE_LOOP('',(#220));
#193=EDGE_LOOP('',(#221));
#194=EDGE_LOOP('',(#222));
#195=EDGE_LOOP('',(#223));
#196=EDGE_LOOP('',(#224));
#197=EDGE_LOOP('',(#225));
#198=EDGE_LOOP('',(#226));
#199=EDGE_LOOP('',(#227));
#200=EDGE_LOOP('',(#228));
#201=EDGE_LOOP('',(#229));
#202=EDGE_LOOP('',(#230));
#203=EDGE_LOOP('',(#231));
#204=EDGE_LOOP('',(#232));
#205=EDGE_LOOP('',(#233));
#206=EDGE_LOOP('',(#234));
#207=ORIENTED_EDGE('',*,*,#250,.T.);
#208=ORIENTED_EDGE('',*,*,#251,.T.);
#209=ORIENTED_EDGE('',*,*,#250,.F.);
#210=ORIENTED_EDGE('',*,*,#252,.T.);
#211=ORIENTED_EDGE('',*,*,#253,.F.);
#212=ORIENTED_EDGE('',*,*,#254,.T.);
#213=ORIENTED_EDGE('',*,*,#255,.F.);
#214=ORIENTED_EDGE('',*,*,#253,.T.);
#215=ORIENTED_EDGE('',*,*,#256,.F.);
#216=ORIENTED_EDGE('',*,*,#255,.T.);
#217=ORIENTED_EDGE('',*,*,#257,.F.);
#218=ORIENTED_EDGE('',*,*,#256,.T.);
#219=ORIENTED_EDGE('',*,*,#257,.T.);
#220=ORIENTED_EDGE('',*,*,#258,.F.);
#221=ORIENTED_EDGE('',*,*,#259,.T.);
#222=ORIENTED_EDGE('',*,*,#260,.F.);
#223=ORIENTED_EDGE('',*,*,#258,.T.);
#224=ORIENTED_EDGE('',*,*,#254,.F.);
#225=ORIENTED_EDGE('',*,*,#260,.T.);
#226=ORIENTED_EDGE('',*,*,#261,.F.);
#227=ORIENTED_EDGE('',*,*,#252,.F.);
#228=ORIENTED_EDGE('',*,*,#259,.F.);
#229=ORIENTED_EDGE('',*,*,#262,.T.);
#230=ORIENTED_EDGE('',*,*,#262,.F.);
#231=ORIENTED_EDGE('',*,*,#261,.T.);
#232=ORIENTED_EDGE('',*,*,#263,.F.);
#233=ORIENTED_EDGE('',*,*,#263,.T.);
#234=ORIENTED_EDGE('',*,*,#251,.F.);
#235=VERTEX_POINT('',#370);
#236=VERTEX_POINT('',#372);
#237=VERTEX_POINT('',#375);
#238=VERTEX_POINT('',#378);
#239=VERTEX_POINT('',#380);
#240=VERTEX_POINT('',#383);
#241=VERTEX_POINT('',#386);
#242=VERTEX_POINT('',#389);
#243=VERTEX_POINT('',#393);
#244=VERTEX_POINT('',#395);
#245=VERTEX_POINT('',#398);
#246=VERTEX_POINT('',#402);
#247=VERTEX_POINT('',#405);
#248=VERTEX_POINT('',#409);
#249=VERTEX_POINT('',#410);
#250=EDGE_CURVE('',#235,#235,#264,.T.);
#251=EDGE_CURVE('',#236,#236,#265,.T.);
#252=EDGE_CURVE('',#237,#237,#266,.T.);
#253=EDGE_CURVE('',#238,#238,#267,.T.);
#254=EDGE_CURVE('',#239,#239,#268,.T.);
#255=EDGE_CURVE('',#240,#240,#269,.T.);
#256=EDGE_CURVE('',#241,#241,#270,.T.);
#257=EDGE_CURVE('',#242,#242,#271,.T.);
#258=EDGE_CURVE('',#243,#243,#272,.T.);
#259=EDGE_CURVE('',#244,#244,#273,.T.);
#260=EDGE_CURVE('',#245,#245,#274,.T.);
#261=EDGE_CURVE('',#246,#246,#275,.T.);
#262=EDGE_CURVE('',#247,#247,#276,.T.);
#263=EDGE_CURVE('',#248,#248,#277,.T.);
#264=CIRCLE('',#279,1.825);
#265=CIRCLE('',#280,1.325);
#266=CIRCLE('',#282,1.825);
#267=CIRCLE('',#284,1.95);
#268=CIRCLE('',#285,2.05);
#269=CIRCLE('',#287,1.95);
#270=CIRCLE('',#289,2.05);
#271=CIRCLE('',#291,2.05);
#272=CIRCLE('',#294,1.85);
#273=CIRCLE('',#295,1.85);
#274=CIRCLE('',#297,2.05);
#275=CIRCLE('',#300,1.975);
#276=CIRCLE('',#302,2.025);
#277=CIRCLE('',#305,1.325);
#278=AXIS2_PLACEMENT_3D('',#368,#308,#309);
#279=AXIS2_PLACEMENT_3D('',#369,#310,#311);
#280=AXIS2_PLACEMENT_3D('',#371,#312,#313);
#281=AXIS2_PLACEMENT_3D('',#373,#314,#315);
#282=AXIS2_PLACEMENT_3D('',#374,#316,#317);
#283=AXIS2_PLACEMENT_3D('',#376,#318,#319);
#284=AXIS2_PLACEMENT_3D('',#377,#320,#321);
#285=AXIS2_PLACEMENT_3D('',#379,#322,#323);
#286=AXIS2_PLACEMENT_3D('',#381,#324,#325);
#287=AXIS2_PLACEMENT_3D('',#382,#326,#327);
#288=AXIS2_PLACEMENT_3D('',#384,#328,#329);
#289=AXIS2_PLACEMENT_3D('',#385,#330,#331);
#290=AXIS2_PLACEMENT_3D('',#387,#332,#333);
#291=AXIS2_PLACEMENT_3D('',#388,#334,#335);
#292=AXIS2_PLACEMENT_3D('',#390,#336,#337);
#293=AXIS2_PLACEMENT_3D('',#391,#338,#339);
#294=AXIS2_PLACEMENT_3D('',#392,#340,#341);
#295=AXIS2_PLACEMENT_3D('',#394,#342,#343);
#296=AXIS2_PLACEMENT_3D('',#396,#344,#345);
#297=AXIS2_PLACEMENT_3D('',#397,#346,#347);
#298=AXIS2_PLACEMENT_3D('',#399,#348,#349);
#299=AXIS2_PLACEMENT_3D('',#400,#350,#351);
#300=AXIS2_PLACEMENT_3D('',#401,#352,#353);
#301=AXIS2_PLACEMENT_3D('',#403,#354,#355);
#302=AXIS2_PLACEMENT_3D('',#404,#356,#357);
#303=AXIS2_PLACEMENT_3D('',#406,#358,#359);
#304=AXIS2_PLACEMENT_3D('',#407,#360,#361);
#305=AXIS2_PLACEMENT_3D('',#408,#362,#363);
#306=AXIS2_PLACEMENT_3D('',#411,#364,#365);
#307=AXIS2_PLACEMENT_3D('',#412,#366,#367);
#308=DIRECTION('',(0.,0.,1.));
#309=DIRECTION('',(1.,0.,0.));
#310=DIRECTION('',(9.90942864954685E-16,1.,0.));
#311=DIRECTION('',(1.,-9.50533411494141E-16,0.));
#312=DIRECTION('',(-9.90942864954685E-16,-1.,0.));
#313=DIRECTION('',(1.,-1.30922526488816E-15,0.));
#314=DIRECTION('',(-9.90942864954685E-16,-1.,0.));
#315=DIRECTION('',(1.,-9.90527104782757E-16,0.));
#316=DIRECTION('',(6.66133814775094E-17,1.,0.));
#317=DIRECTION('',(1.,-1.18816676436768E-16,0.));
#318=DIRECTION('',(-9.90942864954685E-16,-1.,0.));
#319=DIRECTION('',(1.,-9.50533411494141E-16,0.));
#320=DIRECTION('',(-9.90942864954685E-16,-1.,0.));
#321=DIRECTION('',(1.,-8.89601782552209E-16,0.));
#322=DIRECTION('',(-9.90942864954685E-16,-1.,0.));
#323=DIRECTION('',(1.,-8.46206573647224E-16,0.));
#324=DIRECTION('',(9.90942864954685E-16,1.,0.));
#325=DIRECTION('',(-1.,9.84172741971781E-16,0.));
#326=DIRECTION('',(-9.90942864954685E-16,-1.,0.));
#327=DIRECTION('',(1.,-8.89601782552209E-16,0.));
#328=DIRECTION('',(-9.90942864954685E-16,-1.,0.));
#329=DIRECTION('',(1.,-8.89601782552209E-16,0.));
#330=DIRECTION('',(-9.90942864954685E-16,-1.,0.));
#331=DIRECTION('',(1.,-8.46206573647224E-16,0.));
#332=DIRECTION('',(-9.90942864954685E-16,-1.,0.));
#333=DIRECTION('',(1.,-9.50509694407202E-16,0.));
#334=DIRECTION('',(-9.90942864954685E-16,-1.,0.));
#335=DIRECTION('',(1.,-8.46206573647223E-16,0.));
#336=DIRECTION('',(-9.90942864954685E-16,-1.,0.));
#337=DIRECTION('',(1.,-8.46206573647223E-16,0.));
#338=DIRECTION('',(9.90942864954685E-16,1.,0.));
#339=DIRECTION('',(-1.,9.90527104782757E-16,0.));
#340=DIRECTION('',(-9.90942864954685E-16,-1.,0.));
#341=DIRECTION('',(1.,-9.37688365392869E-16,0.));
#342=DIRECTION('',(-9.90942864954685E-16,-1.,0.));
#343=DIRECTION('',(1.,-9.96293888229923E-16,0.));
#344=DIRECTION('',(-9.90942864954685E-16,-1.,0.));
#345=DIRECTION('',(1.,-9.37688365392868E-16,0.));
#346=DIRECTION('',(-9.90942864954685E-16,-1.,0.));
#347=DIRECTION('',(1.,-1.05775821705903E-15,0.));
#348=DIRECTION('',(-9.90942864954685E-16,-1.,0.));
#349=DIRECTION('',(1.,-9.90960785651751E-16,0.));
#350=DIRECTION('',(-9.90942864954685E-16,-1.,0.));
#351=DIRECTION('',(1.,-8.46206573647223E-16,0.));
#352=DIRECTION('',(-6.66133814775094E-17,-1.,0.));
#353=DIRECTION('',(1.,-6.86203906636396E-17,0.));
#354=DIRECTION('',(-6.66133814775094E-17,-1.,0.));
#355=DIRECTION('',(1.,1.46239517118831E-16,0.));
#356=DIRECTION('',(-6.66133814775094E-17,-1.,0.));
#357=DIRECTION('',(-1.,5.35408480239756E-17,0.));
#358=DIRECTION('',(6.66133814775094E-17,1.,0.));
#359=DIRECTION('',(-1.,6.657001339061E-17,0.));
#360=DIRECTION('',(-6.66133814775094E-17,-1.,0.));
#361=DIRECTION('',(1.,9.689137652862E-16,0.));
#362=DIRECTION('',(-9.90942864954685E-16,-1.,0.));
#363=DIRECTION('',(1.,-9.81918948666117E-16,0.));
#364=DIRECTION('',(9.90942864954685E-16,1.,0.));
#365=DIRECTION('',(-1.,9.36347973838582E-16,0.));
#366=DIRECTION('',(-9.90942864954685E-16,-1.,0.));
#367=DIRECTION('',(1.,-1.30922526488816E-15,0.));
#368=CARTESIAN_POINT('',(0.,0.,0.));
#369=CARTESIAN_POINT('',(-1.54556508641689,12.3223106563091,0.));
#370=CARTESIAN_POINT('',(0.27943491358311,12.3223106563091,0.));
#371=CARTESIAN_POINT('',(-1.54556508641689,12.3223106563091,0.));
#372=CARTESIAN_POINT('',(-0.22056508641689,12.3223106563091,0.));
#373=CARTESIAN_POINT('',(-0.115927463007221,12.3223106563091,0.));
#374=CARTESIAN_POINT('',(-1.5455650864169,1.28659637059484,1.38666955995881E-32));
#375=CARTESIAN_POINT('',(-2.5496324464313,1.28659637059484,-1.52396644863124));
#376=CARTESIAN_POINT('',(-1.54556508641691,-11.8776893436909,0.));
#377=CARTESIAN_POINT('',(-1.54556508641691,-5.37768934369087,0.));
#378=CARTESIAN_POINT('',(0.404434913583092,-5.37768934369087,0.));
#379=CARTESIAN_POINT('',(-1.54556508641691,-5.27768934369087,0.));
#380=CARTESIAN_POINT('',(0.504434913583092,-5.27768934369087,0.));
#381=CARTESIAN_POINT('',(-1.54556508641691,-5.27768934369087,0.));
#382=CARTESIAN_POINT('',(-1.54556508641691,-9.87768934369087,0.));
#383=CARTESIAN_POINT('',(0.404434913583088,-9.87768934369087,0.));
#384=CARTESIAN_POINT('',(-1.54556508641691,-11.8776893436909,0.));
#385=CARTESIAN_POINT('',(-1.54556508641691,-9.97768934369087,0.));
#386=CARTESIAN_POINT('',(0.504434913583087,-9.97768934369087,0.));
#387=CARTESIAN_POINT('',(-1.54556508641691,-9.87768934369087,0.));
#388=CARTESIAN_POINT('',(-1.54556508641691,-11.8776893436909,0.));
#389=CARTESIAN_POINT('',(0.504434913583087,-11.8776893436909,0.));
#390=CARTESIAN_POINT('',(-1.54556508641691,-11.8776893436909,0.));
#391=CARTESIAN_POINT('',(0.504434913583087,-11.8776893436909,0.));
#392=CARTESIAN_POINT('',(-1.5455650864169,-3.02768934369087,0.));
#393=CARTESIAN_POINT('',(0.304434913583095,-3.02768934369087,0.));
#394=CARTESIAN_POINT('',(-1.5455650864169,-0.777689343690871,0.));
#395=CARTESIAN_POINT('',(-2.54449745890193,-0.77768934369087,-1.55712366727933));
#396=CARTESIAN_POINT('',(-1.54556508641691,-11.8776893436909,0.));
#397=CARTESIAN_POINT('',(-1.5455650864169,-3.02768934369087,0.));
#398=CARTESIAN_POINT('',(0.504434913583096,-3.02768934369087,0.));
#399=CARTESIAN_POINT('',(0.304434913583095,-3.02768934369087,0.));
#400=CARTESIAN_POINT('',(-1.54556508641691,-11.8776893436909,0.));
#401=CARTESIAN_POINT('',(-1.5455650864169,0.17231065630913,1.38666955995881E-32));
#402=CARTESIAN_POINT('',(-2.52473304970861,0.17231065630913,-1.71518369268809));
#403=CARTESIAN_POINT('',(-1.5455650864169,1.47231065630913,1.38666955995881E-32));
#404=CARTESIAN_POINT('',(-1.5455650864169,-0.77768934369087,1.38666955995881E-32));
#405=CARTESIAN_POINT('',(-2.51875253093849,-0.77768934369087,-1.77581845857777));
#406=CARTESIAN_POINT('',(-1.5455650864169,-0.77768934369087,2.025));
#407=CARTESIAN_POINT('',(-1.5455650864169,0.17231065630913,1.38666955995881E-32));
#408=CARTESIAN_POINT('',(-1.5455650864169,2.82231065630913,0.));
#409=CARTESIAN_POINT('',(-0.220565086416899,2.82231065630913,0.));
#410=CARTESIAN_POINT('',(-1.5455650864169,2.34005009590641,0.));
#411=CARTESIAN_POINT('',(-1.5455650864169,2.34005009590641,0.));
#412=CARTESIAN_POINT('',(-1.54556508641691,-11.8776893436909,0.));
#413=MECHANICAL_DESIGN_GEOMETRIC_PRESENTATION_REPRESENTATION('',(#37,#23,
#24,#25,#26,#27,#28,#29,#30,#31,#32,#33,#34),#414);
#414=(
GEOMETRIC_REPRESENTATION_CONTEXT(3)
GLOBAL_UNCERTAINTY_ASSIGNED_CONTEXT((#415))
GLOBAL_UNIT_ASSIGNED_CONTEXT((#421,#417,#416))
REPRESENTATION_CONTEXT('n 02 025 0033','TOP_LEVEL_ASSEMBLY_PART')
);
#415=UNCERTAINTY_MEASURE_WITH_UNIT(LENGTH_MEASURE(2.E-5),#421,
'DISTANCE_ACCURACY_VALUE','Maximum Tolerance applied to model');
#416=(
NAMED_UNIT(*)
SI_UNIT($,.STERADIAN.)
SOLID_ANGLE_UNIT()
);
#417=(
CONVERSION_BASED_UNIT('DEGREE',#419)
NAMED_UNIT(#418)
PLANE_ANGLE_UNIT()
);
#418=DIMENSIONAL_EXPONENTS(0.,0.,0.,0.,0.,0.,0.);
#419=PLANE_ANGLE_MEASURE_WITH_UNIT(PLANE_ANGLE_MEASURE(0.0174532925),#420);
#420=(
NAMED_UNIT(*)
PLANE_ANGLE_UNIT()
SI_UNIT($,.RADIAN.)
);
#421=(
LENGTH_UNIT()
NAMED_UNIT(*)
SI_UNIT(.MILLI.,.METRE.)
);
ENDSEC;
END-ISO-10303-21;
