ISO-10303-21;
HEADER;
/* Generated by software containing ST-Developer
 * from STEP Tools, Inc. (www.steptools.com) 
 */
/* OPTION: using custom schema-name function */

FILE_DESCRIPTION(
/* description */ (''),
/* implementation_level */ '2;1');

FILE_NAME(
/* name */ 'n 02 036 0001 1.stp',
/* time_stamp */ '2019-03-27T06:47:05+01:00',
/* author */ (''),
/* organization */ (''),
/* preprocessor_version */ 'ST-DEVELOPER v16.7',
/* originating_system */ 'SIEMENS PLM Software NX 12.0',
/* authorisation */ '');

FILE_SCHEMA (('AP203_CONFIGURATION_CONTROLLED_3D_DESIGN_OF_MECHANICAL_PARTS_AND_ASSEMBLIES_MIM_LF { 1 0 10303 403 2 1 2}'));
ENDSEC;

DATA;
#10=SHAPE_REPRESENTATION_RELATIONSHIP('None',
'relationship between n 02 036 1501nxm001-03-None and n 02 036 1501nxm
001-03-None',#92,#11);
#11=ADVANCED_BREP_SHAPE_REPRESENTATION('n 02 036 1501nxm001-03-None',(#131),
#552);
#12=CC_DESIGN_APPROVAL(#24,(#82));
#13=CC_DESIGN_APPROVAL(#25,(#84));
#14=CC_DESIGN_APPROVAL(#26,(#31));
#15=APPROVAL_PERSON_ORGANIZATION(#69,#24,#18);
#16=APPROVAL_PERSON_ORGANIZATION(#70,#25,#19);
#17=APPROVAL_PERSON_ORGANIZATION(#71,#26,#20);
#18=APPROVAL_ROLE('approver');
#19=APPROVAL_ROLE('approver');
#20=APPROVAL_ROLE('approver');
#21=APPROVAL_DATE_TIME(#39,#24);
#22=APPROVAL_DATE_TIME(#40,#25);
#23=APPROVAL_DATE_TIME(#41,#26);
#24=APPROVAL(#27,' ');
#25=APPROVAL(#28,' ');
#26=APPROVAL(#29,' ');
#27=APPROVAL_STATUS('not_yet_approved');
#28=APPROVAL_STATUS('not_yet_approved');
#29=APPROVAL_STATUS('not_yet_approved');
#30=CC_DESIGN_SECURITY_CLASSIFICATION(#31,(#84));
#31=SECURITY_CLASSIFICATION(' ',' ',#32);
#32=SECURITY_CLASSIFICATION_LEVEL('confidential');
#33=CC_DESIGN_DATE_AND_TIME_ASSIGNMENT(#37,#35,(#82));
#34=CC_DESIGN_DATE_AND_TIME_ASSIGNMENT(#38,#36,(#31));
#35=DATE_TIME_ROLE('creation_date');
#36=DATE_TIME_ROLE('classification_date');
#37=DATE_AND_TIME(#52,#42);
#38=DATE_AND_TIME(#53,#43);
#39=DATE_AND_TIME(#54,#44);
#40=DATE_AND_TIME(#55,#45);
#41=DATE_AND_TIME(#56,#46);
#42=LOCAL_TIME(0,0,0.,#47);
#43=LOCAL_TIME(0,0,0.,#48);
#44=LOCAL_TIME(0,0,0.,#49);
#45=LOCAL_TIME(0,0,0.,#50);
#46=LOCAL_TIME(0,0,0.,#51);
#47=COORDINATED_UNIVERSAL_TIME_OFFSET(0,0,.BEHIND.);
#48=COORDINATED_UNIVERSAL_TIME_OFFSET(0,0,.BEHIND.);
#49=COORDINATED_UNIVERSAL_TIME_OFFSET(0,0,.BEHIND.);
#50=COORDINATED_UNIVERSAL_TIME_OFFSET(0,0,.BEHIND.);
#51=COORDINATED_UNIVERSAL_TIME_OFFSET(0,0,.BEHIND.);
#52=CALENDAR_DATE(0,1,1);
#53=CALENDAR_DATE(0,1,1);
#54=CALENDAR_DATE(0,1,1);
#55=CALENDAR_DATE(0,1,1);
#56=CALENDAR_DATE(0,1,1);
#57=CC_DESIGN_PERSON_AND_ORGANIZATION_ASSIGNMENT(#65,#61,(#82,#84));
#58=CC_DESIGN_PERSON_AND_ORGANIZATION_ASSIGNMENT(#66,#62,(#86));
#59=CC_DESIGN_PERSON_AND_ORGANIZATION_ASSIGNMENT(#67,#63,(#84));
#60=CC_DESIGN_PERSON_AND_ORGANIZATION_ASSIGNMENT(#68,#64,(#31));
#61=PERSON_AND_ORGANIZATION_ROLE('creator');
#62=PERSON_AND_ORGANIZATION_ROLE('design_owner');
#63=PERSON_AND_ORGANIZATION_ROLE('design_supplier');
#64=PERSON_AND_ORGANIZATION_ROLE('classification_officer');
#65=PERSON_AND_ORGANIZATION(#79,#72);
#66=PERSON_AND_ORGANIZATION(#79,#73);
#67=PERSON_AND_ORGANIZATION(#79,#74);
#68=PERSON_AND_ORGANIZATION(#79,#75);
#69=PERSON_AND_ORGANIZATION(#79,#76);
#70=PERSON_AND_ORGANIZATION(#79,#77);
#71=PERSON_AND_ORGANIZATION(#79,#78);
#72=ORGANIZATION(' ',' ',' ');
#73=ORGANIZATION(' ',' ',' ');
#74=ORGANIZATION(' ',' ',' ');
#75=ORGANIZATION(' ',' ',' ');
#76=ORGANIZATION(' ',' ',' ');
#77=ORGANIZATION(' ',' ',' ');
#78=ORGANIZATION(' ',' ',' ');
#79=PERSON(' ',' ',' ',(' '),$,$);
#80=SHAPE_DEFINITION_REPRESENTATION(#81,#92);
#81=PRODUCT_DEFINITION_SHAPE('','',#82);
#82=PRODUCT_DEFINITION(' ','',#84,#83);
#83=DESIGN_CONTEXT('',#91,'design');
#84=PRODUCT_DEFINITION_FORMATION_WITH_SPECIFIED_SOURCE(' ',' ',#86,
 .NOT_KNOWN.);
#85=PRODUCT_RELATED_PRODUCT_CATEGORY('detail','',(#86));
#86=PRODUCT('n 02 036 1501nxm001-03','n 02 036 1501nxm001-03',' ',(#89));
#87=PRODUCT_CATEGORY('part',' ');
#88=PRODUCT_CATEGORY(' ','');
#89=MECHANICAL_CONTEXT(' ',#91,'mechanical');
#90=APPLICATION_PROTOCOL_DEFINITION('international standard',
'config_control_design',2010,#91);
#91=APPLICATION_CONTEXT(
'configuration controlled 3D designs of mechanical parts and assemblie
s');
#92=SHAPE_REPRESENTATION('n 02 036 1501nxm001-03-None',(#361),#552);
#93=OVER_RIDING_STYLED_ITEM('',(#100),#150,#98);
#94=OVER_RIDING_STYLED_ITEM('',(#101),#152,#98);
#95=OVER_RIDING_STYLED_ITEM('',(#102),#153,#98);
#96=OVER_RIDING_STYLED_ITEM('',(#103),#162,#98);
#97=PRESENTATION_LAYER_ASSIGNMENT('1','Layer 1',(#131));
#98=STYLED_ITEM('',(#99),#131);
#99=PRESENTATION_STYLE_ASSIGNMENT((#104));
#100=PRESENTATION_STYLE_ASSIGNMENT((#105));
#101=PRESENTATION_STYLE_ASSIGNMENT((#106));
#102=PRESENTATION_STYLE_ASSIGNMENT((#107));
#103=PRESENTATION_STYLE_ASSIGNMENT((#108));
#104=SURFACE_STYLE_USAGE(.BOTH.,#109);
#105=SURFACE_STYLE_USAGE(.BOTH.,#110);
#106=SURFACE_STYLE_USAGE(.BOTH.,#111);
#107=SURFACE_STYLE_USAGE(.BOTH.,#112);
#108=SURFACE_STYLE_USAGE(.BOTH.,#113);
#109=SURFACE_SIDE_STYLE('',(#114));
#110=SURFACE_SIDE_STYLE('',(#115));
#111=SURFACE_SIDE_STYLE('',(#116));
#112=SURFACE_SIDE_STYLE('',(#117));
#113=SURFACE_SIDE_STYLE('',(#118));
#114=SURFACE_STYLE_FILL_AREA(#119);
#115=SURFACE_STYLE_FILL_AREA(#120);
#116=SURFACE_STYLE_FILL_AREA(#121);
#117=SURFACE_STYLE_FILL_AREA(#122);
#118=SURFACE_STYLE_FILL_AREA(#123);
#119=FILL_AREA_STYLE('',(#124));
#120=FILL_AREA_STYLE('',(#125));
#121=FILL_AREA_STYLE('',(#126));
#122=FILL_AREA_STYLE('',(#127));
#123=FILL_AREA_STYLE('',(#128));
#124=FILL_AREA_STYLE_COLOUR('',#129);
#125=FILL_AREA_STYLE_COLOUR('',#130);
#126=FILL_AREA_STYLE_COLOUR('',#130);
#127=FILL_AREA_STYLE_COLOUR('',#130);
#128=FILL_AREA_STYLE_COLOUR('',#130);
#129=COLOUR_RGB('LIGHT_BLUE',0.,0.65999847409781,1.);
#130=COLOUR_RGB('GOLDEN_ORANGE',1.,0.65999847409781,0.);
#131=MANIFOLD_SOLID_BREP('',#132);
#132=CLOSED_SHELL('',(#150,#151,#152,#153,#154,#155,#156,#157,#158,#159,
#160,#161,#162,#163,#164,#165,#166,#167,#168,#169,#170));
#133=CYLINDRICAL_SURFACE('',#368,1.89999999999997);
#134=CYLINDRICAL_SURFACE('',#372,3.15);
#135=CYLINDRICAL_SURFACE('',#376,1.25);
#136=CYLINDRICAL_SURFACE('',#380,3.15);
#137=CYLINDRICAL_SURFACE('',#384,1.95);
#138=CYLINDRICAL_SURFACE('',#387,2.375);
#139=CYLINDRICAL_SURFACE('',#399,2.40000000000001);
#140=CYLINDRICAL_SURFACE('',#402,1.82499999999999);
#141=CONICAL_SURFACE('',#366,1.04083408558608E-14,70.0000000000001);
#142=CONICAL_SURFACE('',#369,1.9,9.2080795302487);
#143=CONICAL_SURFACE('',#374,1.42500000000004,70.0000000000018);
#144=CONICAL_SURFACE('',#382,1.95,44.9999999999993);
#145=CONICAL_SURFACE('',#385,3.14999999999999,45.0000000000002);
#146=CONICAL_SURFACE('',#394,2.59978739031889,2.99999999999995);
#147=CONICAL_SURFACE('',#395,2.55,10.0000000000002);
#148=VERTEX_LOOP('',#302);
#149=VERTEX_LOOP('',#306);
#150=ADVANCED_FACE('',(#177,#178),#171,.F.);
#151=ADVANCED_FACE('',(#179,#180),#141,.F.);
#152=ADVANCED_FACE('',(#181,#182),#133,.F.);
#153=ADVANCED_FACE('',(#183,#184),#142,.F.);
#154=ADVANCED_FACE('',(#185,#186),#134,.T.);
#155=ADVANCED_FACE('',(#187,#188),#143,.F.);
#156=ADVANCED_FACE('',(#189,#190),#135,.F.);
#157=ADVANCED_FACE('',(#191,#192),#172,.F.);
#158=ADVANCED_FACE('',(#193,#194),#136,.T.);
#159=ADVANCED_FACE('',(#195,#196),#144,.T.);
#160=ADVANCED_FACE('',(#197,#198),#137,.T.);
#161=ADVANCED_FACE('',(#199,#200),#145,.T.);
#162=ADVANCED_FACE('',(#201,#202),#138,.T.);
#163=ADVANCED_FACE('',(#203,#204),#173,.F.);
#164=ADVANCED_FACE('',(#205,#206),#174,.F.);
#165=ADVANCED_FACE('',(#207,#208),#146,.T.);
#166=ADVANCED_FACE('',(#209,#210),#147,.T.);
#167=ADVANCED_FACE('',(#211,#212),#175,.F.);
#168=ADVANCED_FACE('',(#213,#214),#139,.T.);
#169=ADVANCED_FACE('',(#215,#216),#176,.F.);
#170=ADVANCED_FACE('',(#217,#218),#140,.T.);
#171=PLANE('',#364);
#172=PLANE('',#378);
#173=PLANE('',#389);
#174=PLANE('',#392);
#175=PLANE('',#397);
#176=PLANE('',#401);
#177=FACE_BOUND('',#219,.T.);
#178=FACE_BOUND('',#220,.T.);
#179=FACE_BOUND('',#221,.T.);
#180=FACE_BOUND('',#148,.T.);
#181=FACE_BOUND('',#222,.T.);
#182=FACE_BOUND('',#223,.T.);
#183=FACE_BOUND('',#224,.T.);
#184=FACE_BOUND('',#225,.T.);
#185=FACE_BOUND('',#226,.T.);
#186=FACE_BOUND('',#227,.T.);
#187=FACE_BOUND('',#149,.T.);
#188=FACE_BOUND('',#228,.T.);
#189=FACE_BOUND('',#229,.T.);
#190=FACE_BOUND('',#230,.T.);
#191=FACE_BOUND('',#231,.T.);
#192=FACE_BOUND('',#232,.T.);
#193=FACE_BOUND('',#233,.T.);
#194=FACE_BOUND('',#234,.T.);
#195=FACE_BOUND('',#235,.T.);
#196=FACE_BOUND('',#236,.T.);
#197=FACE_BOUND('',#237,.T.);
#198=FACE_BOUND('',#238,.T.);
#199=FACE_BOUND('',#239,.T.);
#200=FACE_BOUND('',#240,.T.);
#201=FACE_BOUND('',#241,.T.);
#202=FACE_BOUND('',#242,.T.);
#203=FACE_BOUND('',#243,.T.);
#204=FACE_BOUND('',#244,.T.);
#205=FACE_BOUND('',#245,.T.);
#206=FACE_BOUND('',#246,.T.);
#207=FACE_BOUND('',#247,.T.);
#208=FACE_BOUND('',#248,.T.);
#209=FACE_BOUND('',#249,.T.);
#210=FACE_BOUND('',#250,.T.);
#211=FACE_BOUND('',#251,.T.);
#212=FACE_BOUND('',#252,.T.);
#213=FACE_BOUND('',#253,.T.);
#214=FACE_BOUND('',#254,.T.);
#215=FACE_BOUND('',#255,.T.);
#216=FACE_BOUND('',#256,.T.);
#217=FACE_BOUND('',#257,.T.);
#218=FACE_BOUND('',#258,.T.);
#219=EDGE_LOOP('',(#259));
#220=EDGE_LOOP('',(#260));
#221=EDGE_LOOP('',(#261));
#222=EDGE_LOOP('',(#262));
#223=EDGE_LOOP('',(#263));
#224=EDGE_LOOP('',(#264));
#225=EDGE_LOOP('',(#265));
#226=EDGE_LOOP('',(#266));
#227=EDGE_LOOP('',(#267));
#228=EDGE_LOOP('',(#268));
#229=EDGE_LOOP('',(#269));
#230=EDGE_LOOP('',(#270));
#231=EDGE_LOOP('',(#271));
#232=EDGE_LOOP('',(#272));
#233=EDGE_LOOP('',(#273));
#234=EDGE_LOOP('',(#274));
#235=EDGE_LOOP('',(#275));
#236=EDGE_LOOP('',(#276));
#237=EDGE_LOOP('',(#277));
#238=EDGE_LOOP('',(#278));
#239=EDGE_LOOP('',(#279));
#240=EDGE_LOOP('',(#280));
#241=EDGE_LOOP('',(#281));
#242=EDGE_LOOP('',(#282));
#243=EDGE_LOOP('',(#283));
#244=EDGE_LOOP('',(#284));
#245=EDGE_LOOP('',(#285));
#246=EDGE_LOOP('',(#286));
#247=EDGE_LOOP('',(#287));
#248=EDGE_LOOP('',(#288));
#249=EDGE_LOOP('',(#289));
#250=EDGE_LOOP('',(#290));
#251=EDGE_LOOP('',(#291));
#252=EDGE_LOOP('',(#292));
#253=EDGE_LOOP('',(#293));
#254=EDGE_LOOP('',(#294));
#255=EDGE_LOOP('',(#295));
#256=EDGE_LOOP('',(#296));
#257=EDGE_LOOP('',(#297));
#258=EDGE_LOOP('',(#298));
#259=ORIENTED_EDGE('',*,*,#321,.T.);
#260=ORIENTED_EDGE('',*,*,#322,.T.);
#261=ORIENTED_EDGE('',*,*,#323,.F.);
#262=ORIENTED_EDGE('',*,*,#324,.F.);
#263=ORIENTED_EDGE('',*,*,#323,.T.);
#264=ORIENTED_EDGE('',*,*,#321,.F.);
#265=ORIENTED_EDGE('',*,*,#324,.T.);
#266=ORIENTED_EDGE('',*,*,#325,.F.);
#267=ORIENTED_EDGE('',*,*,#326,.T.);
#268=ORIENTED_EDGE('',*,*,#327,.T.);
#269=ORIENTED_EDGE('',*,*,#327,.F.);
#270=ORIENTED_EDGE('',*,*,#328,.F.);
#271=ORIENTED_EDGE('',*,*,#329,.T.);
#272=ORIENTED_EDGE('',*,*,#328,.T.);
#273=ORIENTED_EDGE('',*,*,#329,.F.);
#274=ORIENTED_EDGE('',*,*,#330,.T.);
#275=ORIENTED_EDGE('',*,*,#330,.F.);
#276=ORIENTED_EDGE('',*,*,#331,.T.);
#277=ORIENTED_EDGE('',*,*,#331,.F.);
#278=ORIENTED_EDGE('',*,*,#332,.T.);
#279=ORIENTED_EDGE('',*,*,#332,.F.);
#280=ORIENTED_EDGE('',*,*,#325,.T.);
#281=ORIENTED_EDGE('',*,*,#322,.F.);
#282=ORIENTED_EDGE('',*,*,#333,.F.);
#283=ORIENTED_EDGE('',*,*,#334,.F.);
#284=ORIENTED_EDGE('',*,*,#333,.T.);
#285=ORIENTED_EDGE('',*,*,#335,.T.);
#286=ORIENTED_EDGE('',*,*,#336,.F.);
#287=ORIENTED_EDGE('',*,*,#337,.F.);
#288=ORIENTED_EDGE('',*,*,#336,.T.);
#289=ORIENTED_EDGE('',*,*,#334,.T.);
#290=ORIENTED_EDGE('',*,*,#337,.T.);
#291=ORIENTED_EDGE('',*,*,#326,.F.);
#292=ORIENTED_EDGE('',*,*,#338,.T.);
#293=ORIENTED_EDGE('',*,*,#338,.F.);
#294=ORIENTED_EDGE('',*,*,#339,.T.);
#295=ORIENTED_EDGE('',*,*,#339,.F.);
#296=ORIENTED_EDGE('',*,*,#340,.T.);
#297=ORIENTED_EDGE('',*,*,#340,.F.);
#298=ORIENTED_EDGE('',*,*,#335,.F.);
#299=VERTEX_POINT('',#489);
#300=VERTEX_POINT('',#491);
#301=VERTEX_POINT('',#494);
#302=VERTEX_POINT('',#495);
#303=VERTEX_POINT('',#498);
#304=VERTEX_POINT('',#502);
#305=VERTEX_POINT('',#504);
#306=VERTEX_POINT('',#506);
#307=VERTEX_POINT('',#508);
#308=VERTEX_POINT('',#511);
#309=VERTEX_POINT('',#514);
#310=VERTEX_POINT('',#517);
#311=VERTEX_POINT('',#520);
#312=VERTEX_POINT('',#523);
#313=VERTEX_POINT('',#527);
#314=VERTEX_POINT('',#530);
#315=VERTEX_POINT('',#533);
#316=VERTEX_POINT('',#535);
#317=VERTEX_POINT('',#538);
#318=VERTEX_POINT('',#542);
#319=VERTEX_POINT('',#545);
#320=VERTEX_POINT('',#548);
#321=EDGE_CURVE('',#299,#299,#341,.T.);
#322=EDGE_CURVE('',#300,#300,#342,.T.);
#323=EDGE_CURVE('',#301,#301,#343,.T.);
#324=EDGE_CURVE('',#303,#303,#344,.T.);
#325=EDGE_CURVE('',#304,#304,#345,.T.);
#326=EDGE_CURVE('',#305,#305,#346,.T.);
#327=EDGE_CURVE('',#307,#307,#347,.T.);
#328=EDGE_CURVE('',#308,#308,#348,.T.);
#329=EDGE_CURVE('',#309,#309,#349,.T.);
#330=EDGE_CURVE('',#310,#310,#350,.T.);
#331=EDGE_CURVE('',#311,#311,#351,.T.);
#332=EDGE_CURVE('',#312,#312,#352,.T.);
#333=EDGE_CURVE('',#313,#313,#353,.T.);
#334=EDGE_CURVE('',#314,#314,#354,.T.);
#335=EDGE_CURVE('',#315,#315,#355,.T.);
#336=EDGE_CURVE('',#316,#316,#356,.T.);
#337=EDGE_CURVE('',#317,#317,#357,.T.);
#338=EDGE_CURVE('',#318,#318,#358,.T.);
#339=EDGE_CURVE('',#319,#319,#359,.T.);
#340=EDGE_CURVE('',#320,#320,#360,.T.);
#341=CIRCLE('',#362,1.25156249999904);
#342=CIRCLE('',#363,2.375);
#343=CIRCLE('',#365,1.9);
#344=CIRCLE('',#367,1.9);
#345=CIRCLE('',#370,3.14999999999999);
#346=CIRCLE('',#371,3.15);
#347=CIRCLE('',#373,1.25);
#348=CIRCLE('',#375,1.25);
#349=CIRCLE('',#377,3.15);
#350=CIRCLE('',#379,3.15);
#351=CIRCLE('',#381,1.95);
#352=CIRCLE('',#383,1.95);
#353=CIRCLE('',#386,2.37499999999997);
#354=CIRCLE('',#388,2.27669317990187);
#355=CIRCLE('',#390,1.82499999999999);
#356=CIRCLE('',#391,2.59978739031889);
#357=CIRCLE('',#393,2.55);
#358=CIRCLE('',#396,2.40000000000001);
#359=CIRCLE('',#398,2.40000000000001);
#360=CIRCLE('',#400,1.82499999999999);
#361=AXIS2_PLACEMENT_3D('',#487,#403,#404);
#362=AXIS2_PLACEMENT_3D('',#488,#405,#406);
#363=AXIS2_PLACEMENT_3D('',#490,#407,#408);
#364=AXIS2_PLACEMENT_3D('',#492,#409,#410);
#365=AXIS2_PLACEMENT_3D('',#493,#411,#412);
#366=AXIS2_PLACEMENT_3D('',#496,#413,#414);
#367=AXIS2_PLACEMENT_3D('',#497,#415,#416);
#368=AXIS2_PLACEMENT_3D('',#499,#417,#418);
#369=AXIS2_PLACEMENT_3D('',#500,#419,#420);
#370=AXIS2_PLACEMENT_3D('',#501,#421,#422);
#371=AXIS2_PLACEMENT_3D('',#503,#423,#424);
#372=AXIS2_PLACEMENT_3D('',#505,#425,#426);
#373=AXIS2_PLACEMENT_3D('',#507,#427,#428);
#374=AXIS2_PLACEMENT_3D('',#509,#429,#430);
#375=AXIS2_PLACEMENT_3D('',#510,#431,#432);
#376=AXIS2_PLACEMENT_3D('',#512,#433,#434);
#377=AXIS2_PLACEMENT_3D('',#513,#435,#436);
#378=AXIS2_PLACEMENT_3D('',#515,#437,#438);
#379=AXIS2_PLACEMENT_3D('',#516,#439,#440);
#380=AXIS2_PLACEMENT_3D('',#518,#441,#442);
#381=AXIS2_PLACEMENT_3D('',#519,#443,#444);
#382=AXIS2_PLACEMENT_3D('',#521,#445,#446);
#383=AXIS2_PLACEMENT_3D('',#522,#447,#448);
#384=AXIS2_PLACEMENT_3D('',#524,#449,#450);
#385=AXIS2_PLACEMENT_3D('',#525,#451,#452);
#386=AXIS2_PLACEMENT_3D('',#526,#453,#454);
#387=AXIS2_PLACEMENT_3D('',#528,#455,#456);
#388=AXIS2_PLACEMENT_3D('',#529,#457,#458);
#389=AXIS2_PLACEMENT_3D('',#531,#459,#460);
#390=AXIS2_PLACEMENT_3D('',#532,#461,#462);
#391=AXIS2_PLACEMENT_3D('',#534,#463,#464);
#392=AXIS2_PLACEMENT_3D('',#536,#465,#466);
#393=AXIS2_PLACEMENT_3D('',#537,#467,#468);
#394=AXIS2_PLACEMENT_3D('',#539,#469,#470);
#395=AXIS2_PLACEMENT_3D('',#540,#471,#472);
#396=AXIS2_PLACEMENT_3D('',#541,#473,#474);
#397=AXIS2_PLACEMENT_3D('',#543,#475,#476);
#398=AXIS2_PLACEMENT_3D('',#544,#477,#478);
#399=AXIS2_PLACEMENT_3D('',#546,#479,#480);
#400=AXIS2_PLACEMENT_3D('',#547,#481,#482);
#401=AXIS2_PLACEMENT_3D('',#549,#483,#484);
#402=AXIS2_PLACEMENT_3D('',#550,#485,#486);
#403=DIRECTION('',(0.,0.,1.));
#404=DIRECTION('',(1.,0.,0.));
#405=DIRECTION('',(6.31074140313247E-16,1.,0.));
#406=DIRECTION('',(-1.,0.,0.));
#407=DIRECTION('',(-6.31074140313247E-16,-1.,0.));
#408=DIRECTION('',(-1.,0.,0.));
#409=DIRECTION('',(6.31074140313247E-16,1.,0.));
#410=DIRECTION('',(-1.,6.38378239159465E-16,0.));
#411=DIRECTION('',(1.6579330501069E-16,1.,0.));
#412=DIRECTION('',(-1.,0.,0.));
#413=DIRECTION('',(-1.6579330501069E-16,-1.,0.));
#414=DIRECTION('',(1.,-1.61635253744219E-16,0.));
#415=DIRECTION('',(6.31074140313247E-16,1.,0.));
#416=DIRECTION('',(-1.,0.,0.));
#417=DIRECTION('',(6.31074140313247E-16,1.,0.));
#418=DIRECTION('',(-1.,0.,0.));
#419=DIRECTION('',(6.31074140313247E-16,1.,0.));
#420=DIRECTION('',(-1.,3.3846328132924E-16,0.));
#421=DIRECTION('',(1.6579330501069E-16,1.,0.));
#422=DIRECTION('',(-1.,0.,0.));
#423=DIRECTION('',(1.6579330501069E-16,1.,0.));
#424=DIRECTION('',(-1.,0.,0.));
#425=DIRECTION('',(1.6579330501069E-16,1.,0.));
#426=DIRECTION('',(-1.,0.,0.));
#427=DIRECTION('',(1.6579330501069E-16,1.,0.));
#428=DIRECTION('',(-1.,0.,0.));
#429=DIRECTION('',(1.6579330501069E-16,1.,0.));
#430=DIRECTION('',(-1.,1.71648430343067E-16,0.));
#431=DIRECTION('',(-1.6579330501069E-16,-1.,0.));
#432=DIRECTION('',(1.,0.,0.));
#433=DIRECTION('',(1.6579330501069E-16,1.,0.));
#434=DIRECTION('',(-1.,0.,0.));
#435=DIRECTION('',(1.6579330501069E-16,1.,0.));
#436=DIRECTION('',(-1.,0.,0.));
#437=DIRECTION('',(-1.6579330501069E-16,-1.,0.));
#438=DIRECTION('',(1.,-1.66533453693773E-16,0.));
#439=DIRECTION('',(1.6579330501069E-16,1.,0.));
#440=DIRECTION('',(-1.,0.,0.));
#441=DIRECTION('',(1.6579330501069E-16,1.,0.));
#442=DIRECTION('',(-1.,0.,0.));
#443=DIRECTION('',(1.6579330501069E-16,1.,0.));
#444=DIRECTION('',(-1.,0.,0.));
#445=DIRECTION('',(1.6579330501069E-16,1.,0.));
#446=DIRECTION('',(-1.,8.31046727350555E-17,0.));
#447=DIRECTION('',(1.6579330501069E-16,1.,0.));
#448=DIRECTION('',(-1.,0.,0.));
#449=DIRECTION('',(1.6579330501069E-16,1.,0.));
#450=DIRECTION('',(-1.,0.,0.));
#451=DIRECTION('',(-1.6579330501069E-16,-1.,0.));
#452=DIRECTION('',(1.,-1.38342100461689E-16,0.));
#453=DIRECTION('',(1.6579330501069E-16,1.,0.));
#454=DIRECTION('',(-1.,0.,0.));
#455=DIRECTION('',(6.31074140313247E-16,1.,0.));
#456=DIRECTION('',(-1.,0.,0.));
#457=DIRECTION('',(1.6579330501069E-16,1.,0.));
#458=DIRECTION('',(1.,0.,0.));
#459=DIRECTION('',(-1.6579330501069E-16,-1.,0.));
#460=DIRECTION('',(1.,-1.66533453693773E-16,0.));
#461=DIRECTION('',(-3.5832440996621E-17,-1.,3.58474936065184E-17));
#462=DIRECTION('',(0.,0.,-1.));
#463=DIRECTION('',(-3.5832440996621E-17,-1.,3.58474936065184E-17));
#464=DIRECTION('',(0.,0.,-0.999999999999999));
#465=DIRECTION('',(-3.5832440996621E-17,-1.,3.58474936065184E-17));
#466=DIRECTION('',(0.,-2.77555756156289E-17,-1.));
#467=DIRECTION('',(-3.5832440996621E-17,-1.,3.58474936065184E-17));
#468=DIRECTION('',(0.,0.,-1.));
#469=DIRECTION('',(3.5832440996621E-17,1.,-3.58474936065184E-17));
#470=DIRECTION('',(0.,5.04577411694003E-16,1.));
#471=DIRECTION('',(3.5832440996621E-17,1.,-3.58474936065184E-17));
#472=DIRECTION('',(0.,1.55165720629333E-16,1.));
#473=DIRECTION('',(1.6579330501069E-16,1.,0.));
#474=DIRECTION('',(-1.,0.,0.));
#475=DIRECTION('',(1.6579330501069E-16,1.,0.));
#476=DIRECTION('',(-1.,1.66533453693773E-16,0.));
#477=DIRECTION('',(1.6579330501069E-16,1.,0.));
#478=DIRECTION('',(-1.,0.,0.));
#479=DIRECTION('',(1.6579330501069E-16,1.,0.));
#480=DIRECTION('',(-1.,0.,0.));
#481=DIRECTION('',(1.6579330501069E-16,1.,0.));
#482=DIRECTION('',(-1.,0.,0.));
#483=DIRECTION('',(1.6579330501069E-16,1.,0.));
#484=DIRECTION('',(-1.,1.66533453693773E-16,0.));
#485=DIRECTION('',(1.6579330501069E-16,1.,0.));
#486=DIRECTION('',(-1.,0.,0.));
#487=CARTESIAN_POINT('',(0.,0.,0.));
#488=CARTESIAN_POINT('',(17.1000670373803,-162.19243941943,45.0028200935974));
#489=CARTESIAN_POINT('',(15.8485045373813,-162.19243941943,45.0028200935974));
#490=CARTESIAN_POINT('',(17.1000670373803,-162.19243941943,45.0028200935974));
#491=CARTESIAN_POINT('',(14.7250670373803,-162.19243941943,45.0028200935974));
#492=CARTESIAN_POINT('',(15.378438981579,-162.19243941943,45.0028200935974));
#493=CARTESIAN_POINT('',(17.1000670373803,-152.692439419424,45.0028200935974));
#494=CARTESIAN_POINT('',(15.2000670373803,-152.692439419424,45.0028200935974));
#495=CARTESIAN_POINT('',(17.1000670373803,-152.000895974319,45.0028200935974));
#496=CARTESIAN_POINT('',(17.1000670373803,-152.000895974319,45.0028200935974));
#497=CARTESIAN_POINT('',(17.1000670373803,-158.192439419424,45.0028200935974));
#498=CARTESIAN_POINT('',(15.2000670373803,-158.192439419424,45.0028200935974));
#499=CARTESIAN_POINT('',(17.1000670373803,-152.692439419424,45.0028200935974));
#500=CARTESIAN_POINT('',(17.1000670373803,-158.192439419424,45.0028200935974));
#501=CARTESIAN_POINT('',(17.1000670373803,-142.642439419424,45.0028200935974));
#502=CARTESIAN_POINT('',(13.9500670373803,-142.642439419424,45.0028200935974));
#503=CARTESIAN_POINT('',(17.1000670373803,-146.842439419424,45.0028200935974));
#504=CARTESIAN_POINT('',(13.9500670373803,-146.842439419424,45.0028200935974));
#505=CARTESIAN_POINT('',(17.1000670373803,-133.942439419424,45.0028200935974));
#506=CARTESIAN_POINT('',(17.1000670373803,-144.461097003254,45.0028200935974));
#507=CARTESIAN_POINT('',(17.1000670373803,-144.006134210421,45.0028200935974));
#508=CARTESIAN_POINT('',(15.8500670373803,-144.006134210421,45.0028200935974));
#509=CARTESIAN_POINT('',(17.1000670373803,-143.942439419424,45.0028200935974));
#510=CARTESIAN_POINT('',(17.1000670373803,-133.942439419424,45.0028200935974));
#511=CARTESIAN_POINT('',(18.3500670373803,-133.942439419424,45.0028200935974));
#512=CARTESIAN_POINT('',(17.1000670373803,-133.942439419424,45.0028200935974));
#513=CARTESIAN_POINT('',(17.1000670373803,-133.942439419424,45.0028200935974));
#514=CARTESIAN_POINT('',(13.9500670373803,-133.942439419424,45.0028200935974));
#515=CARTESIAN_POINT('',(20.2500670373803,-133.942439419424,45.0028200935974));
#516=CARTESIAN_POINT('',(17.1000670373803,-135.242439419424,45.0028200935974));
#517=CARTESIAN_POINT('',(13.9500670373803,-135.242439419424,45.0028200935974));
#518=CARTESIAN_POINT('',(17.1000670373803,-133.942439419424,45.0028200935974));
#519=CARTESIAN_POINT('',(17.1000670373803,-136.442439419424,45.0028200935974));
#520=CARTESIAN_POINT('',(15.1500670373803,-136.442439419424,45.0028200935974));
#521=CARTESIAN_POINT('',(17.1000670373803,-136.442439419424,45.0028200935974));
#522=CARTESIAN_POINT('',(17.1000670373803,-141.442439419424,45.0028200935974));
#523=CARTESIAN_POINT('',(15.1500670373803,-141.442439419424,45.0028200935974));
#524=CARTESIAN_POINT('',(17.1000670373803,-133.942439419424,45.0028200935974));
#525=CARTESIAN_POINT('',(17.1000670373803,-142.642439419424,45.0028200935974));
#526=CARTESIAN_POINT('',(17.1000670373803,-151.692439419424,45.0028200935974));
#527=CARTESIAN_POINT('',(14.7250670373803,-151.692439419424,45.0028200935974));
#528=CARTESIAN_POINT('',(17.1000670373803,-152.692439419424,45.0028200935974));
#529=CARTESIAN_POINT('',(17.1000670373803,-151.692439419424,45.0028200935974));
#530=CARTESIAN_POINT('',(19.3767602172822,-151.692439419424,45.0028200935974));
#531=CARTESIAN_POINT('',(19.4750670373803,-151.692439419424,45.0028200935974));
#532=CARTESIAN_POINT('',(17.1000670373803,-149.192439419424,45.0028200935974));
#533=CARTESIAN_POINT('',(17.1000670373803,-149.192439419424,43.1778200935974));
#534=CARTESIAN_POINT('',(17.1000670373803,-149.192439419424,45.0028200935974));
#535=CARTESIAN_POINT('',(17.1000670373803,-149.192439419424,42.4030327032785));
#536=CARTESIAN_POINT('',(17.1001929912537,-149.192439419424,45.6026074706912));
#537=CARTESIAN_POINT('',(17.1000670373803,-150.142439419424,45.0028200935974));
#538=CARTESIAN_POINT('',(17.1000670373803,-150.142439419424,42.4528200935973));
#539=CARTESIAN_POINT('',(17.1000670373803,-149.192439419424,45.0028200935974));
#540=CARTESIAN_POINT('',(17.1000670373803,-150.142439419424,45.0028200935974));
#541=CARTESIAN_POINT('',(17.1000670373803,-146.842439419424,45.0028200935974));
#542=CARTESIAN_POINT('',(14.7000670373803,-146.842439419424,45.0028200935974));
#543=CARTESIAN_POINT('',(19.5000670373803,-146.842439419424,45.0028200935974));
#544=CARTESIAN_POINT('',(17.1000670373803,-149.092439419424,45.0028200935974));
#545=CARTESIAN_POINT('',(14.7000670373803,-149.092439419424,45.0028200935974));
#546=CARTESIAN_POINT('',(17.1000670373803,-133.942439419424,45.0028200935974));
#547=CARTESIAN_POINT('',(17.1000670373803,-149.092439419424,45.0028200935974));
#548=CARTESIAN_POINT('',(15.2750670373803,-149.092439419424,45.0028200935974));
#549=CARTESIAN_POINT('',(18.9250670373803,-149.092439419424,45.0028200935974));
#550=CARTESIAN_POINT('',(17.1000670373803,-133.942439419424,45.0028200935974));
#551=MECHANICAL_DESIGN_GEOMETRIC_PRESENTATION_REPRESENTATION('',(#98,#93,
#94,#95,#96),#552);
#552=(
GEOMETRIC_REPRESENTATION_CONTEXT(3)
GLOBAL_UNCERTAINTY_ASSIGNED_CONTEXT((#553))
GLOBAL_UNIT_ASSIGNED_CONTEXT((#559,#555,#554))
REPRESENTATION_CONTEXT('n 02 036 0001 1','TOP_LEVEL_ASSEMBLY_PART')
);
#553=UNCERTAINTY_MEASURE_WITH_UNIT(LENGTH_MEASURE(2.E-5),#559,
'DISTANCE_ACCURACY_VALUE','Maximum Tolerance applied to model');
#554=(
NAMED_UNIT(*)
SI_UNIT($,.STERADIAN.)
SOLID_ANGLE_UNIT()
);
#555=(
CONVERSION_BASED_UNIT('DEGREE',#557)
NAMED_UNIT(#556)
PLANE_ANGLE_UNIT()
);
#556=DIMENSIONAL_EXPONENTS(0.,0.,0.,0.,0.,0.,0.);
#557=PLANE_ANGLE_MEASURE_WITH_UNIT(PLANE_ANGLE_MEASURE(0.0174532925),#558);
#558=(
NAMED_UNIT(*)
PLANE_ANGLE_UNIT()
SI_UNIT($,.RADIAN.)
);
#559=(
LENGTH_UNIT()
NAMED_UNIT(*)
SI_UNIT(.MILLI.,.METRE.)
);
ENDSEC;
END-ISO-10303-21;
