ISO-10303-21;
HEADER;
/* Generated by software containing ST-Developer
 * from STEP Tools, Inc. (www.steptools.com) 
 */
/* OPTION: using custom schema-name function */

FILE_DESCRIPTION(
/* description */ (''),
/* implementation_level */ '2;1');

FILE_NAME(
/* name */ 'n 01 060 000x 1nxc001-03.stp',
/* time_stamp */ '2022-06-02T15:45:50+02:00',
/* author */ (''),
/* organization */ (''),
/* preprocessor_version */ 'ST-DEVELOPER v16.7',
/* originating_system */ 'SIEMENS PLM Software NX 12.0',
/* authorisation */ '');

FILE_SCHEMA (('AUTOMOTIVE_DESIGN { 1 0 10303 214 3 1 1 1 }'));
ENDSEC;

DATA;
#10=SHAPE_REPRESENTATION_RELATIONSHIP('None',
'relationship between n 01 060 000x 1nxc001-03-None and n 01 060 000x 
1nxc001-03-None',#22,#11);
#11=ADVANCED_BREP_SHAPE_REPRESENTATION('n 01 060 000x 1nxc001-03-None',
(#117),#425);
#12=SHAPE_DEFINITION_REPRESENTATION(#13,#22);
#13=PRODUCT_DEFINITION_SHAPE('','',#14);
#14=PRODUCT_DEFINITION(' ','',#16,#15);
#15=PRODUCT_DEFINITION_CONTEXT('part definition',#21,'design');
#16=PRODUCT_DEFINITION_FORMATION_WITH_SPECIFIED_SOURCE(' ',' ',#18,
 .NOT_KNOWN.);
#17=PRODUCT_RELATED_PRODUCT_CATEGORY('part','',(#18));
#18=PRODUCT('n 01 060 000x 1nxc001-03','n 01 060 000x 1nxc001-03',' ',(#19));
#19=PRODUCT_CONTEXT(' ',#21,'mechanical');
#20=APPLICATION_PROTOCOL_DEFINITION('international standard',
'automotive_design',2010,#21);
#21=APPLICATION_CONTEXT(
'core data for automotive mechanical design processes');
#22=SHAPE_REPRESENTATION('n 01 060 000x 1nxc001-03-None',(#267),#425);
#23=OVER_RIDING_STYLED_ITEM('',(#38),#129,#36);
#24=OVER_RIDING_STYLED_ITEM('',(#39),#130,#36);
#25=OVER_RIDING_STYLED_ITEM('',(#40),#131,#36);
#26=OVER_RIDING_STYLED_ITEM('',(#41),#132,#36);
#27=OVER_RIDING_STYLED_ITEM('',(#42),#133,#36);
#28=OVER_RIDING_STYLED_ITEM('',(#43),#134,#36);
#29=OVER_RIDING_STYLED_ITEM('',(#44),#135,#36);
#30=OVER_RIDING_STYLED_ITEM('',(#45),#136,#36);
#31=OVER_RIDING_STYLED_ITEM('',(#46),#137,#36);
#32=OVER_RIDING_STYLED_ITEM('',(#47),#140,#36);
#33=OVER_RIDING_STYLED_ITEM('',(#48),#141,#36);
#34=OVER_RIDING_STYLED_ITEM('',(#49),#142,#36);
#35=PRESENTATION_LAYER_ASSIGNMENT('1','Layer 1',(#117));
#36=STYLED_ITEM('',(#37),#117);
#37=PRESENTATION_STYLE_ASSIGNMENT((#50));
#38=PRESENTATION_STYLE_ASSIGNMENT((#51));
#39=PRESENTATION_STYLE_ASSIGNMENT((#52));
#40=PRESENTATION_STYLE_ASSIGNMENT((#53));
#41=PRESENTATION_STYLE_ASSIGNMENT((#54));
#42=PRESENTATION_STYLE_ASSIGNMENT((#55));
#43=PRESENTATION_STYLE_ASSIGNMENT((#56));
#44=PRESENTATION_STYLE_ASSIGNMENT((#57));
#45=PRESENTATION_STYLE_ASSIGNMENT((#58));
#46=PRESENTATION_STYLE_ASSIGNMENT((#59));
#47=PRESENTATION_STYLE_ASSIGNMENT((#60));
#48=PRESENTATION_STYLE_ASSIGNMENT((#61));
#49=PRESENTATION_STYLE_ASSIGNMENT((#62));
#50=SURFACE_STYLE_USAGE(.BOTH.,#63);
#51=SURFACE_STYLE_USAGE(.BOTH.,#64);
#52=SURFACE_STYLE_USAGE(.BOTH.,#65);
#53=SURFACE_STYLE_USAGE(.BOTH.,#66);
#54=SURFACE_STYLE_USAGE(.BOTH.,#67);
#55=SURFACE_STYLE_USAGE(.BOTH.,#68);
#56=SURFACE_STYLE_USAGE(.BOTH.,#69);
#57=SURFACE_STYLE_USAGE(.BOTH.,#70);
#58=SURFACE_STYLE_USAGE(.BOTH.,#71);
#59=SURFACE_STYLE_USAGE(.BOTH.,#72);
#60=SURFACE_STYLE_USAGE(.BOTH.,#73);
#61=SURFACE_STYLE_USAGE(.BOTH.,#74);
#62=SURFACE_STYLE_USAGE(.BOTH.,#75);
#63=SURFACE_SIDE_STYLE('',(#76));
#64=SURFACE_SIDE_STYLE('',(#77));
#65=SURFACE_SIDE_STYLE('',(#78));
#66=SURFACE_SIDE_STYLE('',(#79));
#67=SURFACE_SIDE_STYLE('',(#80));
#68=SURFACE_SIDE_STYLE('',(#81));
#69=SURFACE_SIDE_STYLE('',(#82));
#70=SURFACE_SIDE_STYLE('',(#83));
#71=SURFACE_SIDE_STYLE('',(#84));
#72=SURFACE_SIDE_STYLE('',(#85));
#73=SURFACE_SIDE_STYLE('',(#86));
#74=SURFACE_SIDE_STYLE('',(#87));
#75=SURFACE_SIDE_STYLE('',(#88));
#76=SURFACE_STYLE_FILL_AREA(#89);
#77=SURFACE_STYLE_FILL_AREA(#90);
#78=SURFACE_STYLE_FILL_AREA(#91);
#79=SURFACE_STYLE_FILL_AREA(#92);
#80=SURFACE_STYLE_FILL_AREA(#93);
#81=SURFACE_STYLE_FILL_AREA(#94);
#82=SURFACE_STYLE_FILL_AREA(#95);
#83=SURFACE_STYLE_FILL_AREA(#96);
#84=SURFACE_STYLE_FILL_AREA(#97);
#85=SURFACE_STYLE_FILL_AREA(#98);
#86=SURFACE_STYLE_FILL_AREA(#99);
#87=SURFACE_STYLE_FILL_AREA(#100);
#88=SURFACE_STYLE_FILL_AREA(#101);
#89=FILL_AREA_STYLE('',(#102));
#90=FILL_AREA_STYLE('',(#103));
#91=FILL_AREA_STYLE('',(#104));
#92=FILL_AREA_STYLE('',(#105));
#93=FILL_AREA_STYLE('',(#106));
#94=FILL_AREA_STYLE('',(#107));
#95=FILL_AREA_STYLE('',(#108));
#96=FILL_AREA_STYLE('',(#109));
#97=FILL_AREA_STYLE('',(#110));
#98=FILL_AREA_STYLE('',(#111));
#99=FILL_AREA_STYLE('',(#112));
#100=FILL_AREA_STYLE('',(#113));
#101=FILL_AREA_STYLE('',(#114));
#102=FILL_AREA_STYLE_COLOUR('',#115);
#103=FILL_AREA_STYLE_COLOUR('',#116);
#104=FILL_AREA_STYLE_COLOUR('',#116);
#105=FILL_AREA_STYLE_COLOUR('',#116);
#106=FILL_AREA_STYLE_COLOUR('',#116);
#107=FILL_AREA_STYLE_COLOUR('',#116);
#108=FILL_AREA_STYLE_COLOUR('',#116);
#109=FILL_AREA_STYLE_COLOUR('',#116);
#110=FILL_AREA_STYLE_COLOUR('',#116);
#111=FILL_AREA_STYLE_COLOUR('',#116);
#112=FILL_AREA_STYLE_COLOUR('',#116);
#113=FILL_AREA_STYLE_COLOUR('',#116);
#114=FILL_AREA_STYLE_COLOUR('',#116);
#115=COLOUR_RGB('Medium Steel',0.596063172350652,0.666666666666667,0.686259250782025);
#116=COLOUR_RGB('Deep Orange',1.,0.4,0.);
#117=MANIFOLD_SOLID_BREP('',#118);
#118=CLOSED_SHELL('',(#129,#130,#131,#132,#133,#134,#135,#136,#137,#138,
#139,#140,#141,#142));
#119=VERTEX_LOOP('',#239);
#120=CONICAL_SURFACE('',#284,1.33137084989847,45.);
#121=CONICAL_SURFACE('',#288,5.75,44.9999999999998);
#122=CONICAL_SURFACE('',#290,0.,60.0000000000001);
#123=FACE_OUTER_BOUND('',#189,.T.);
#124=(
BOUNDED_SURFACE()
B_SPLINE_SURFACE(2,2,((#364,#365,#366,#367,#368,#369,#370),(#371,#372,#373,
#374,#375,#376,#377),(#378,#379,#380,#381,#382,#383,#384),(#385,#386,#387,
#388,#389,#390,#391),(#392,#393,#394,#395,#396,#397,#398)),
 .UNSPECIFIED.,.F.,.T.,.F.)
B_SPLINE_SURFACE_WITH_KNOTS((3,2,3),(1,2,2,2,2,1),(0.,0.5,1.),(-0.333333333333335,
0.,0.333333333333333,0.666666666666665,1.,1.33333333333333),
 .UNSPECIFIED.)
GEOMETRIC_REPRESENTATION_ITEM()
RATIONAL_B_SPLINE_SURFACE(((1.,0.5,1.,0.5,1.,0.5,1.),(0.853553390593274,
0.426776695296637,0.853553390593274,0.426776695296637,0.853553390593274,
0.426776695296637,0.853553390593274),(0.853553390593274,0.426776695296637,
0.853553390593274,0.426776695296637,0.853553390593274,0.426776695296637,
0.853553390593274),(0.853553390593274,0.426776695296637,0.853553390593274,
0.426776695296637,0.853553390593274,0.426776695296637,0.853553390593274),
(1.,0.5,1.,0.5,1.,0.5,1.)))
REPRESENTATION_ITEM('')
SURFACE()
);
#125=PLANE('',#273);
#126=PLANE('',#277);
#127=PLANE('',#283);
#128=PLANE('',#293);
#129=ADVANCED_FACE('',(#149,#150),#143,.T.);
#130=ADVANCED_FACE('',(#151,#152),#125,.T.);
#131=ADVANCED_FACE('',(#153,#154),#144,.T.);
#132=ADVANCED_FACE('',(#155,#156),#124,.T.);
#133=ADVANCED_FACE('',(#157,#158),#126,.T.);
#134=ADVANCED_FACE('',(#159,#160),#145,.T.);
#135=ADVANCED_FACE('',(#161,#162),#146,.T.);
#136=ADVANCED_FACE('',(#123),#127,.T.);
#137=ADVANCED_FACE('',(#163,#164),#120,.T.);
#138=ADVANCED_FACE('',(#165,#166),#147,.T.);
#139=ADVANCED_FACE('',(#167,#168),#121,.T.);
#140=ADVANCED_FACE('',(#169,#170),#122,.F.);
#141=ADVANCED_FACE('',(#171,#172),#148,.F.);
#142=ADVANCED_FACE('',(#173,#174),#128,.T.);
#143=CYLINDRICAL_SURFACE('',#270,3.);
#144=CYLINDRICAL_SURFACE('',#275,6.45);
#145=CYLINDRICAL_SURFACE('',#279,3.);
#146=CYLINDRICAL_SURFACE('',#281,5.);
#147=CYLINDRICAL_SURFACE('',#287,5.75);
#148=CYLINDRICAL_SURFACE('',#292,3.25);
#149=FACE_BOUND('',#175,.T.);
#150=FACE_BOUND('',#176,.T.);
#151=FACE_BOUND('',#177,.T.);
#152=FACE_BOUND('',#178,.T.);
#153=FACE_BOUND('',#179,.T.);
#154=FACE_BOUND('',#180,.T.);
#155=FACE_BOUND('',#181,.T.);
#156=FACE_BOUND('',#182,.T.);
#157=FACE_BOUND('',#183,.T.);
#158=FACE_BOUND('',#184,.T.);
#159=FACE_BOUND('',#185,.T.);
#160=FACE_BOUND('',#186,.T.);
#161=FACE_BOUND('',#187,.T.);
#162=FACE_BOUND('',#188,.T.);
#163=FACE_BOUND('',#190,.T.);
#164=FACE_BOUND('',#191,.T.);
#165=FACE_BOUND('',#192,.T.);
#166=FACE_BOUND('',#193,.T.);
#167=FACE_BOUND('',#194,.T.);
#168=FACE_BOUND('',#195,.T.);
#169=FACE_BOUND('',#196,.T.);
#170=FACE_BOUND('',#119,.T.);
#171=FACE_BOUND('',#197,.T.);
#172=FACE_BOUND('',#198,.T.);
#173=FACE_BOUND('',#199,.T.);
#174=FACE_BOUND('',#200,.T.);
#175=EDGE_LOOP('',(#201));
#176=EDGE_LOOP('',(#202));
#177=EDGE_LOOP('',(#203));
#178=EDGE_LOOP('',(#204));
#179=EDGE_LOOP('',(#205));
#180=EDGE_LOOP('',(#206));
#181=EDGE_LOOP('',(#207));
#182=EDGE_LOOP('',(#208));
#183=EDGE_LOOP('',(#209));
#184=EDGE_LOOP('',(#210));
#185=EDGE_LOOP('',(#211));
#186=EDGE_LOOP('',(#212));
#187=EDGE_LOOP('',(#213));
#188=EDGE_LOOP('',(#214));
#189=EDGE_LOOP('',(#215));
#190=EDGE_LOOP('',(#216));
#191=EDGE_LOOP('',(#217));
#192=EDGE_LOOP('',(#218));
#193=EDGE_LOOP('',(#219));
#194=EDGE_LOOP('',(#220));
#195=EDGE_LOOP('',(#221));
#196=EDGE_LOOP('',(#222));
#197=EDGE_LOOP('',(#223));
#198=EDGE_LOOP('',(#224));
#199=EDGE_LOOP('',(#225));
#200=EDGE_LOOP('',(#226));
#201=ORIENTED_EDGE('',*,*,#241,.T.);
#202=ORIENTED_EDGE('',*,*,#242,.T.);
#203=ORIENTED_EDGE('',*,*,#243,.F.);
#204=ORIENTED_EDGE('',*,*,#244,.T.);
#205=ORIENTED_EDGE('',*,*,#244,.F.);
#206=ORIENTED_EDGE('',*,*,#245,.T.);
#207=ORIENTED_EDGE('',*,*,#245,.F.);
#208=ORIENTED_EDGE('',*,*,#246,.F.);
#209=ORIENTED_EDGE('',*,*,#241,.F.);
#210=ORIENTED_EDGE('',*,*,#246,.T.);
#211=ORIENTED_EDGE('',*,*,#242,.F.);
#212=ORIENTED_EDGE('',*,*,#247,.T.);
#213=ORIENTED_EDGE('',*,*,#248,.F.);
#214=ORIENTED_EDGE('',*,*,#243,.T.);
#215=ORIENTED_EDGE('',*,*,#249,.T.);
#216=ORIENTED_EDGE('',*,*,#249,.F.);
#217=ORIENTED_EDGE('',*,*,#247,.F.);
#218=ORIENTED_EDGE('',*,*,#250,.T.);
#219=ORIENTED_EDGE('',*,*,#251,.F.);
#220=ORIENTED_EDGE('',*,*,#248,.T.);
#221=ORIENTED_EDGE('',*,*,#250,.F.);
#222=ORIENTED_EDGE('',*,*,#252,.F.);
#223=ORIENTED_EDGE('',*,*,#253,.T.);
#224=ORIENTED_EDGE('',*,*,#252,.T.);
#225=ORIENTED_EDGE('',*,*,#253,.F.);
#226=ORIENTED_EDGE('',*,*,#251,.T.);
#227=VERTEX_POINT('',#350);
#228=VERTEX_POINT('',#352);
#229=VERTEX_POINT('',#355);
#230=VERTEX_POINT('',#357);
#231=VERTEX_POINT('',#360);
#232=VERTEX_POINT('',#363);
#233=VERTEX_POINT('',#401);
#234=VERTEX_POINT('',#404);
#235=VERTEX_POINT('',#407);
#236=VERTEX_POINT('',#411);
#237=VERTEX_POINT('',#413);
#238=VERTEX_POINT('',#417);
#239=VERTEX_POINT('',#418);
#240=VERTEX_POINT('',#421);
#241=EDGE_CURVE('',#227,#227,#254,.T.);
#242=EDGE_CURVE('',#228,#228,#255,.T.);
#243=EDGE_CURVE('',#229,#229,#256,.T.);
#244=EDGE_CURVE('',#230,#230,#257,.T.);
#245=EDGE_CURVE('',#231,#231,#258,.T.);
#246=EDGE_CURVE('',#232,#232,#259,.T.);
#247=EDGE_CURVE('',#233,#233,#260,.T.);
#248=EDGE_CURVE('',#234,#234,#261,.T.);
#249=EDGE_CURVE('',#235,#235,#262,.T.);
#250=EDGE_CURVE('',#236,#236,#263,.T.);
#251=EDGE_CURVE('',#237,#237,#264,.T.);
#252=EDGE_CURVE('',#238,#238,#265,.T.);
#253=EDGE_CURVE('',#240,#240,#266,.T.);
#254=CIRCLE('',#268,3.);
#255=CIRCLE('',#269,3.);
#256=CIRCLE('',#271,5.);
#257=CIRCLE('',#272,6.45);
#258=CIRCLE('',#274,6.45);
#259=CIRCLE('',#276,5.45);
#260=CIRCLE('',#278,3.);
#261=CIRCLE('',#280,5.);
#262=CIRCLE('',#282,1.33137084989847);
#263=CIRCLE('',#285,5.75);
#264=CIRCLE('',#286,5.75);
#265=CIRCLE('',#289,3.25);
#266=CIRCLE('',#291,3.25);
#267=AXIS2_PLACEMENT_3D('',#348,#294,#295);
#268=AXIS2_PLACEMENT_3D('',#349,#296,#297);
#269=AXIS2_PLACEMENT_3D('',#351,#298,#299);
#270=AXIS2_PLACEMENT_3D('',#353,#300,#301);
#271=AXIS2_PLACEMENT_3D('',#354,#302,#303);
#272=AXIS2_PLACEMENT_3D('',#356,#304,#305);
#273=AXIS2_PLACEMENT_3D('',#358,#306,#307);
#274=AXIS2_PLACEMENT_3D('',#359,#308,#309);
#275=AXIS2_PLACEMENT_3D('',#361,#310,#311);
#276=AXIS2_PLACEMENT_3D('',#362,#312,#313);
#277=AXIS2_PLACEMENT_3D('',#399,#314,#315);
#278=AXIS2_PLACEMENT_3D('',#400,#316,#317);
#279=AXIS2_PLACEMENT_3D('',#402,#318,#319);
#280=AXIS2_PLACEMENT_3D('',#403,#320,#321);
#281=AXIS2_PLACEMENT_3D('',#405,#322,#323);
#282=AXIS2_PLACEMENT_3D('',#406,#324,#325);
#283=AXIS2_PLACEMENT_3D('',#408,#326,#327);
#284=AXIS2_PLACEMENT_3D('',#409,#328,#329);
#285=AXIS2_PLACEMENT_3D('',#410,#330,#331);
#286=AXIS2_PLACEMENT_3D('',#412,#332,#333);
#287=AXIS2_PLACEMENT_3D('',#414,#334,#335);
#288=AXIS2_PLACEMENT_3D('',#415,#336,#337);
#289=AXIS2_PLACEMENT_3D('',#416,#338,#339);
#290=AXIS2_PLACEMENT_3D('',#419,#340,#341);
#291=AXIS2_PLACEMENT_3D('',#420,#342,#343);
#292=AXIS2_PLACEMENT_3D('',#422,#344,#345);
#293=AXIS2_PLACEMENT_3D('',#423,#346,#347);
#294=DIRECTION('',(0.,0.,1.));
#295=DIRECTION('',(1.,0.,0.));
#296=DIRECTION('',(1.,3.51436609374757E-15,2.34291072916505E-15));
#297=DIRECTION('',(-3.46944695195361E-15,1.,0.));
#298=DIRECTION('',(-1.,-3.51436609374757E-15,-2.34291072916505E-15));
#299=DIRECTION('',(-4.62592926927149E-15,1.,0.));
#300=DIRECTION('',(1.,3.51436609374757E-15,2.34291072916505E-15));
#301=DIRECTION('',(-2.31296463463574E-15,3.46944695195361E-15,1.));
#302=DIRECTION('',(-1.,-3.51436609374757E-15,-2.34291072916505E-15));
#303=DIRECTION('',(3.46944695195361E-15,-1.,0.));
#304=DIRECTION('',(-1.,-3.30732876747889E-15,-2.54213248925426E-15));
#305=DIRECTION('',(-2.15159500896348E-15,4.30319001792696E-15,1.));
#306=DIRECTION('',(-1.,-3.51436609374757E-15,-2.34291072916505E-15));
#307=DIRECTION('',(-2.34187669256869E-15,3.51454976232901E-15,1.));
#308=DIRECTION('',(-1.,-3.51436609374757E-15,-2.34291072916505E-15));
#309=DIRECTION('',(-2.15159500896348E-15,3.22739251344522E-15,1.));
#310=DIRECTION('',(1.,3.15296536958574E-15,1.89143981223865E-15));
#311=DIRECTION('',(-2.15159500896348E-15,3.76529126568609E-15,1.));
#312=DIRECTION('',(1.,3.51436609374757E-15,2.34291072916505E-15));
#313=DIRECTION('',(-2.54638308400265E-15,2.54638308400265E-15,1.));
#314=DIRECTION('',(1.,3.51436609374757E-15,2.34291072916505E-15));
#315=DIRECTION('',(-2.34187669256869E-15,3.51108031537706E-15,1.));
#316=DIRECTION('',(-1.,-3.51436609374757E-15,-2.1564657037259E-15));
#317=DIRECTION('',(4.62592926927149E-15,-1.,0.));
#318=DIRECTION('',(1.,3.51436609374757E-15,2.34291072916505E-15));
#319=DIRECTION('',(-2.31296463463574E-15,3.46944695195361E-15,1.));
#320=DIRECTION('',(-1.,0.,0.));
#321=DIRECTION('',(0.,0.,1.));
#322=DIRECTION('',(1.,3.76218373317283E-15,2.13196311081822E-15));
#323=DIRECTION('',(-2.16840434497101E-15,3.46944695195361E-15,1.));
#324=DIRECTION('',(1.,3.51436609374757E-15,2.34291072916505E-15));
#325=DIRECTION('',(0.,2.60592077122477E-15,1.));
#326=DIRECTION('',(1.,3.51436609374757E-15,2.34291072916505E-15));
#327=DIRECTION('',(-2.34534613952064E-15,3.51454976232901E-15,1.));
#328=DIRECTION('',(-1.,-3.51436609374757E-15,-2.1564657037259E-15));
#329=DIRECTION('',(-2.06504104790933E-15,3.4197911313532E-15,1.));
#330=DIRECTION('',(-1.,0.,0.));
#331=DIRECTION('',(0.,0.,1.));
#332=DIRECTION('',(-1.,0.,0.));
#333=DIRECTION('',(0.,0.,1.));
#334=DIRECTION('',(-1.,0.,0.));
#335=DIRECTION('',(0.,0.,1.));
#336=DIRECTION('',(-1.,0.,0.));
#337=DIRECTION('',(6.46802190893668E-19,0.,1.));
#338=DIRECTION('',(1.,3.51436609374759E-15,6.59121311931235E-15));
#339=DIRECTION('',(-6.4051328343759E-15,0.,1.));
#340=DIRECTION('',(-1.,-3.51436609374759E-15,-6.59121311931235E-15));
#341=DIRECTION('',(-6.59215645925864E-15,3.44731123256886E-15,1.));
#342=DIRECTION('',(-1.,-3.51436609374757E-15,-2.34291072916505E-15));
#343=DIRECTION('',(3.51436609374757E-15,-1.,0.));
#344=DIRECTION('',(1.,3.51436609374757E-15,2.76337694564142E-15));
#345=DIRECTION('',(-2.73552548134804E-15,3.20256641718795E-15,1.));
#346=DIRECTION('',(-1.,-3.51436609374757E-15,-2.34291072916505E-15));
#347=DIRECTION('',(-2.34291072916506E-15,3.51454976232901E-15,1.));
#348=CARTESIAN_POINT('',(0.,0.,0.));
#349=CARTESIAN_POINT('',(19.2,24.5,1.55551690911779E-13));
#350=CARTESIAN_POINT('',(19.2,27.5,1.55551690911779E-13));
#351=CARTESIAN_POINT('',(44.6,24.5000000000001,2.15061623432571E-13));
#352=CARTESIAN_POINT('',(44.6,27.5000000000001,2.15061623432571E-13));
#353=CARTESIAN_POINT('',(25.5464101615137,24.5,1.70420763370871E-13));
#354=CARTESIAN_POINT('',(18.,24.5,1.51486297959E-13));
#355=CARTESIAN_POINT('',(18.,19.5,1.51486297959E-13));
#356=CARTESIAN_POINT('',(18.,24.5,1.47102346739856E-13));
#357=CARTESIAN_POINT('',(18.,24.5,6.45000000000015));
#358=CARTESIAN_POINT('',(18.,17.405,-7.09499999999982));
#359=CARTESIAN_POINT('',(18.2,24.5,1.53642461051608E-13));
#360=CARTESIAN_POINT('',(18.2,24.5,6.45000000000015));
#361=CARTESIAN_POINT('',(18.,24.5,1.54108961281302E-13));
#362=CARTESIAN_POINT('',(19.2,24.5,1.55118010042784E-13));
#363=CARTESIAN_POINT('',(19.2,24.5,5.45000000000016));
#364=CARTESIAN_POINT('',(18.2,24.5,6.45000000000015));
#365=CARTESIAN_POINT('',(18.1999999999999,35.6717277088193,6.45000000000011));
#366=CARTESIAN_POINT('',(18.2,30.0858638544096,-3.22499999999987));
#367=CARTESIAN_POINT('',(18.2,24.4999999999999,-12.8999999999998));
#368=CARTESIAN_POINT('',(18.2,18.9141361455903,-3.22499999999983));
#369=CARTESIAN_POINT('',(18.2,13.3282722911807,6.45000000000019));
#370=CARTESIAN_POINT('',(18.2,24.5,6.45000000000015));
#371=CARTESIAN_POINT('',(18.6142135623731,24.5,6.45000000000015));
#372=CARTESIAN_POINT('',(18.614213562373,35.6717277088193,6.45000000000012));
#373=CARTESIAN_POINT('',(18.6142135623731,30.0858638544096,-3.22499999999986));
#374=CARTESIAN_POINT('',(18.6142135623731,24.4999999999999,-12.8999999999998));
#375=CARTESIAN_POINT('',(18.6142135623731,18.9141361455904,-3.22499999999983));
#376=CARTESIAN_POINT('',(18.6142135623731,13.3282722911808,6.45000000000019));
#377=CARTESIAN_POINT('',(18.6142135623731,24.5,6.45000000000015));
#378=CARTESIAN_POINT('',(18.9071067811865,24.5,6.15710678118669));
#379=CARTESIAN_POINT('',(18.9071067811865,35.164421772642,6.15710678118667));
#380=CARTESIAN_POINT('',(18.9071067811865,29.832210886321,-3.07855339059313));
#381=CARTESIAN_POINT('',(18.9071067811866,24.5,-12.3142135623729));
#382=CARTESIAN_POINT('',(18.9071067811866,19.167789113679,-3.0785533905931));
#383=CARTESIAN_POINT('',(18.9071067811866,13.835578227358,6.15710678118673));
#384=CARTESIAN_POINT('',(18.9071067811865,24.5,6.15710678118669));
#385=CARTESIAN_POINT('',(19.2,24.5,5.86421356237324));
#386=CARTESIAN_POINT('',(19.2,34.6571158364647,5.86421356237322));
#387=CARTESIAN_POINT('',(19.2,29.5785579182323,-2.93210678118641));
#388=CARTESIAN_POINT('',(19.2,24.5,-11.728427124746));
#389=CARTESIAN_POINT('',(19.2,19.4214420817676,-2.93210678118638));
#390=CARTESIAN_POINT('',(19.2,14.3428841635353,5.86421356237328));
#391=CARTESIAN_POINT('',(19.2,24.5,5.86421356237324));
#392=CARTESIAN_POINT('',(19.2,24.5,5.45000000000016));
#393=CARTESIAN_POINT('',(19.1999999999999,33.9396769012504,5.45000000000012));
#394=CARTESIAN_POINT('',(19.2,29.2198384506252,-2.72499999999986));
#395=CARTESIAN_POINT('',(19.2,24.5,-10.8999999999998));
#396=CARTESIAN_POINT('',(19.2,19.7801615493748,-2.72499999999983));
#397=CARTESIAN_POINT('',(19.2,15.0603230987496,5.45000000000019));
#398=CARTESIAN_POINT('',(19.2,24.5,5.45000000000016));
#399=CARTESIAN_POINT('',(19.2,31.595,-7.09499999999987));
#400=CARTESIAN_POINT('',(47.3313708498985,24.5000000000001,2.21877825796809E-13));
#401=CARTESIAN_POINT('',(47.3313708498985,21.5000000000001,2.21877825796809E-13));
#402=CARTESIAN_POINT('',(25.5464101615137,24.5,1.70420763370871E-13));
#403=CARTESIAN_POINT('',(1.75,24.4999999999999,1.09266762304827E-13));
#404=CARTESIAN_POINT('',(1.75,24.4999999999999,5.00000000000011));
#405=CARTESIAN_POINT('',(3.,24.4999999999999,1.19506851296727E-13));
#406=CARTESIAN_POINT('',(49.,24.5000000000001,2.25188718013144E-13));
#407=CARTESIAN_POINT('',(49.,24.5000000000001,1.3313708498987));
#408=CARTESIAN_POINT('',(49.,25.9645079348884,-1.4645079348881));
#409=CARTESIAN_POINT('',(49.,24.5000000000001,2.25476167331241E-13));
#410=CARTESIAN_POINT('',(1.,24.4999999999999,1.09266762304827E-13));
#411=CARTESIAN_POINT('',(1.,24.4999999999999,5.75000000000011));
#412=CARTESIAN_POINT('',(3.09560246261134E-16,24.4999999999999,1.09266762304827E-13));
#413=CARTESIAN_POINT('',(3.09560246261134E-16,24.4999999999999,5.75000000000011));
#414=CARTESIAN_POINT('',(3.06158774201454E-16,24.4999999999999,1.09266762304827E-13));
#415=CARTESIAN_POINT('',(1.,24.4999999999999,1.09266762304827E-13));
#416=CARTESIAN_POINT('',(16.5381197846483,24.5,1.4391462630617E-13));
#417=CARTESIAN_POINT('',(16.5381197846483,24.5,3.25000000000014));
#418=CARTESIAN_POINT('',(18.4145081595146,24.5,1.56282301979514E-13));
#419=CARTESIAN_POINT('',(18.4145081595146,24.5,1.56282301979514E-13));
#420=CARTESIAN_POINT('',(2.16840434497101E-16,24.4999999999999,1.06181741607938E-13));
#421=CARTESIAN_POINT('',(1.16385302391767E-14,21.2499999999999,1.06181741607938E-13));
#422=CARTESIAN_POINT('',(1.8,24.4999999999999,1.11155820110092E-13));
#423=CARTESIAN_POINT('',(3.22150225260194E-14,18.9999999999999,-5.49999999999987));
#424=MECHANICAL_DESIGN_GEOMETRIC_PRESENTATION_REPRESENTATION('',(#36,#23,
#24,#25,#26,#27,#28,#29,#30,#31,#32,#33,#34),#425);
#425=(
GEOMETRIC_REPRESENTATION_CONTEXT(3)
GLOBAL_UNCERTAINTY_ASSIGNED_CONTEXT((#426))
GLOBAL_UNIT_ASSIGNED_CONTEXT((#432,#428,#427))
REPRESENTATION_CONTEXT('n 01 060 000x 1nxc001-03',
'TOP_LEVEL_ASSEMBLY_PART')
);
#426=UNCERTAINTY_MEASURE_WITH_UNIT(LENGTH_MEASURE(2.E-5),#432,
'DISTANCE_ACCURACY_VALUE','Maximum Tolerance applied to model');
#427=(
NAMED_UNIT(*)
SI_UNIT($,.STERADIAN.)
SOLID_ANGLE_UNIT()
);
#428=(
CONVERSION_BASED_UNIT('DEGREE',#430)
NAMED_UNIT(#429)
PLANE_ANGLE_UNIT()
);
#429=DIMENSIONAL_EXPONENTS(0.,0.,0.,0.,0.,0.,0.);
#430=PLANE_ANGLE_MEASURE_WITH_UNIT(PLANE_ANGLE_MEASURE(0.0174532925),#431);
#431=(
NAMED_UNIT(*)
PLANE_ANGLE_UNIT()
SI_UNIT($,.RADIAN.)
);
#432=(
LENGTH_UNIT()
NAMED_UNIT(*)
SI_UNIT(.MILLI.,.METRE.)
);
ENDSEC;
END-ISO-10303-21;
